================================================================================
Title : Funeral Rites
Artist : Sepultura
Album : Morbid Visions
Transcribed by : By DimeBolt ([email protected])
================================================================================
Legend
------
h = hammer-on
p = pull-off
b = bend
r = bend release
/ = slide up/down
= natural harmonic
[5] = artifical harmonic
~ = vibrato
tr = trill

Intro Riffs
E|----------------------|------------------------||----------------------------
B|----------------------|------------------------||----------------------------
G|----------------------|------------------------||----------------------------
D|-9---9--11--12--8-----|------------------------||----------------------------
A|-7---7---9--10--6--9--|-8----3--3--3--6--6--6--||------3--------4--------5---
E|-------------------7--|-6----1--1--1--4--4--4--||-0-0--1---0-0--2---0-0--3---

E-||------------------|--------------------||----------------|-----------------
B-||------------------|--------------------||----------------|-----------------
G-||------------------|--------------------||----------------|-----------------
D-||-9---9--10---12---|-13---13--10---13---||-2---2--3---5---|-3-3-----3-3-----
A-||-7---7---8---10---|-11---11---8---11---||-2---2--3---5---|-3-3-----3-3-----
E-||------------------|--------------------||----------------|-----1-1-----1-1-

Verse (FAST)
E|-----------------||-----||---------------------------------|-----------------
B|-----------------||-----||---------------------------------|-----------------
G|-----------------||-----||---------------------------------|-----------------
D|-3-3-----3-3-----||-9---||---------------------------------|-----------------
A|-3-3-----3-3-----||-7---||-7-7-7-7-7-7-7-7-7-7-7-7-7-7-7-7-|-6-6-6-6-6-6-6-6-
E|-----1-1-----1-1-||-----||---------------------------------|-----------------

E|-----------------||---------------------------------|-------------------------
B|-----------------||---------------------------------|-------------------------
G|-----------------||---------------------------------|-------------------------
D|-----------------||---------------------------------|-------------------------
A|-8-8-8-8-8-8-8-8-||-0-0-0-0-0-0-0-0-2-2-2-2-2-2-2-2-|-----------------3-3-3-3-
E|-----------------||---------------------------------|-4-4-4-4-4-4-4-4---------

Chorus
E|---------||-----------|------||---------------------------------|-------------
B|---------||-----------|------||---------------------------------|-------------
G|---------||-----------|------||---------------------------------|-------------
D|---------||-9----x---|------||---------------------------------|-------------
A|-3-3-3-3-||-7----x---|-8----||-7-7-7-7-7-7-7-7-7-7-7-7-7-7-7-7-|-7-7-7-7-7-7-
E|---------||-----------|-6----||---------------------------------|-------------

E|---------------------|--------------------------------|----------------------
B|---------------------|--------------------------------|----------------------
G|---------------------|--------------------------------|----------------------
D|---------------------|--------------------------------|----------------------
A|-7-7-7-7-7-7-7-7-7-7-|-8------------------------------|-----------------8--8-
E|---------------------|-6--6-6-6-6-6-6-6-6-6-6-6-6-6-6-|-6-6-6-6-6-6-6-6-6--6-

Bridge Slower
E|------||---------------||---------------|--------|---------------|----------||-
B|------||---------------||---------------|--------|---------------|----------||-
G|------||---------------||---------------|--------|---------------|----------||-
D|------||-5--4---4--3---||-9-------------|--------|-9-------------|----------||-
A|--8---||-3--2---2--1---||-7----9---10---|-6------|------9---10---|-6--------||-
E|--6---||---------------||------7----8---|-4------|---------------|----------||-

Solo
E|-----------------------|-----------------------|-----------------------|------
B|-----------------------|-----------------------|-----------------------|------
G|-----------------------|-----------------------|-----------------------|------
D|-----------------------|-----------------------|-----------------------|------
A|-7--7-7-7-7-7--7-7-7-7-|-7--7-7-7-7-7--7-7-7-7-|-----------------------|------
E|-----------------------|-----------------------|-6--6-6-6-6-6--6-6-6-6-|-6--6-

Fast Again
E|------------------||---------------------------|-----|-----|-----------------
B|------------------||---------------------------|-----|-----|-----------------
G|------------------||---------------------------|--|--|-----------------
D|------------------||---------------------------|-----|-----|-----------------
A|------------------||-----------------6--5------|-----|-----|-----------------
E|-6-6-6-6--6-6-6-6-||-5-5-5-5-5-5-5-5--------6--|-----|-----|-5-5-5-5-5-5-5-5-

Finish with this
E|-----------||-----------------|-----*|--
B|-----------||-----------------|-----*|--
G|-----------||-----------------|-----*|--
D|-------7---||-5--4----4--3----|-9---*|--
A|-6--5------||-3--2----2--1----|-7---*|--
E|-----------||-----------------|-----*|--





Ваше мнение



Капча

Рекомендуем