From:James Johnson
Sepultura-Desperate Cry
Arise

I tune my guitar down 1/2 step for this song
just do what sounds right I guess.
Weird chords for this song, pay attention to their structures
Rhy. Fig 1 (guitar 1)
let ring, clean tone
|---------------------------------------------------------------|
|---------------------------------------------------------------|
|-3----------3-----------3--------------------4-----------------|
|----1----1-----1-----1----1-----1---------2--------------------|
|-------1----------1----------1---------2-----------------------|
|------------------------------------0--------------------------|
w/Rhy. Fig 1
(Distorted)
|---------------------------------------------------------------|
|---------------------------------------------------------------|
|-3---3---3----------3--3--3------------------------------------|
|-1---1---1----------1--1--1------------------------------------|
|-1---1---1----------1--1--1--------2---------------------------|
|-----------------------------------0---------------------------|
Play 4 times
P.M...............
|----------------|
|----------------|
|----------------|
|----------------|
|-2-2-2-2-2-2-2-2|
|-0-0-0-0-0-0-0-0|
P.M.............. P.M............. P.M...............
|---------------------------------------------------------------|
|---------------------------------------------------------------|
|3----------------------3-------------------3-------------------|
|1----------------------1-------------------1-------------------|
|1--2---2---2--2--2--2--1--2--2--2--2--2-2--1-2--2--2--2--2--2--|
|---0---0---0--0--0--0-----0--0--0--0--0-0----0--0--0--0--0--0--|
|---------------------------------------------------------------|
|---------------------------------------------------------------|
|-3-----------------4-------------------------------------------|
|----1-----1-----2-----2----------------------------------------|
|-------1-----2-------------------------------------------------|
|---------------------------------------------------------------|
Rhy. Fig 2
P.M..................... P.M...................
|------------------------------------------------------|
|------------------------------------------------------|
|--8---------------------------8-----------------------|
|--6---------------------------6-----------------------|More - - \
|--6---------------------------6-----------------------| |
|------0---0---0-0-0--0-0-0-0----0---0--0-0-0--0-0-0-0-| |
P.M.-------------------- /
|---------------------------------------------------------------|
|---------------------------------------------------------------|
|-8---------------------------8-8-8-8--9--9-9-9-----------------|
|-6---------------------------6-6-6-6--7--7-7-7-----------------|
|-6---------------------------6-6-6-6--7--7-7-7-----------------|
|----0---0---0-0-0---0-0-0-0------------------------------------|
|---------------------------------------------------------------|
|---------------------------------------------------------------|
|----------------------------4/9--------------------------------|
|-2---(2)----------3--2--------------------2--------------------|
|-2---(2)----------1--2------2/7-----------2--------------------|
|-0---(0)-------------0--------------------0-------------------|
1st/2nd Verse w/ vocals "Sacrifice is pleasure/Death the
coldest wiind"
P.M.....
|---------------------------------------------------------------|
|---------------------------------------------------------------|
|---------------------------------------------------------------|
|------------------4--3-----------------------------------------|
|3--2-----4--5--2--2--1--3--2----2--2--2--2--2------------------|
|1--0-----2--3--0--------1--0----0--0--0--0--0------------------|
Chorus "Creation!"
|---------------------------------------------------------------|
|---------------------------------------------------------------|
|---------------------------------------------------------------|
|3--3----3-3---3--3---------------------------------------------|
|1--1----1-1---1--1-----2--2--2--2--2--2--2--2------------------|
|1--1-0--1-1-0-1--1-0---0--0--0--0--0--0--0--0------------------|
Rhy Fig 2
Main Verse riff
Chorus
Now time to shred =)
P.M.........
|--------------------------------------------------------|
|--------------------------------------------------------|
|--------------------------------------------------------|
|--------------------------------------------------------|
|---------------4-------------3--------------------------|
|-1-1-1-1-1-1-1---1-1-1-1-1-----1-1-1-1-1-1--2-2-2-2-2---|
|---------------------------------------------------------------|
|---------------------------------------------------------------|
|---------------------------------------------------------------|
|---------------------------------------------------------------|
|-----------------4----------------3----------------------------|
|-1-1-1-1-1-1-1-----1-1-1-1-1-1-1-----1-1-1-1-1-1-1--1--0--1--0-|
Rhy Fig 3
P.M.......... ....... ....... . Play 4 times
|---------------------------------------------------------------|
|---------------------------------------------------------------|
|---------------------------------------------------------------|
|---------------------------------------------------------------|
|--------------2----------3-----------2------4------------------|
|-1-1-1--2--1----1--2--1-----1--2--1-----1---2------------------|
w/ "Endless empty maze, Despair distress and silence" etc 2x
P.M..........................................
|---------------------------------------------------------------|
|---------------------------------------------------------------|
|---------------------------------------------------------------|
|---------------------------------------------------------------|
|----------------------------------------------4---3------------|
|-1-1-1-1-1-1-1-1-1-1-1-1-1-1-1-1-1-1-1-1-1----2---1------------|
P.M..................................................
|---------------------------------------------------------------|
|---------------------------------------------------------------|
|---------------------------------------------------------------|
|---------------------------------------------------------------|
|---------------------------------------------------------------|
|-1-1-1-1-1-1-1-1-1-1-1-1-0-0-0-0-0-0-0-0-0-0-0-0-0-------------|
rhy fig 3 Four times
T T T
|-14--(18)-----------------------13--(16)-------11-(14)----11---|
|-//-----------------------------//-----------------//----------|
|-//-----------------------------//-----------------//----------|
|-//-----------------------------//-----------------//----------|
|---------------------------------------------------------------|
|---------------------------------------------------------------|
|-----------------------------16-----------19----------22--19---|
|---------16----18----19------9---18-------12--21------15--12---|
|13-15-15-8--15-10-15-11--15------10--16/19----13--19-----------|
|-6/8--8-----8-----8------8-----------9------------12-----------|
|---------------------------------------------------------------|
|---------------------------------------------------------------|
|-----19--------------16----------------------------------------|
|-----12--21----------9--18-------------------------------------|
|-19------13--19\16------10--15------15---(15)\-----------------|
|-12----------12\9-----------8---18--8----(8)-\-----------------|
|--------------------------------11-----------------------------|
|---------------------------------------------------------------|
Rhy fig 3 twice
Play 4 times
|---------------------------------------------------------------|
|---------------------------------------------------------------|
|---------------------------------------------------------------|
|--------------------------------------------4------------------|
|-3-----3--3---3----3-3--3--4---4-4--4----4--2------------------|
|-1-----1--1---1----1-1--1--2---2-2--2----2---------------------|
|---------------------------------------------------------------|
|---------------------------------------------------------------|
|---------------------------------------------------------------|
|-2-------(2)-------------3-------2-------(2)-------------------|
|-2-------(2)-------------1-------2-------(2)-------------------|
|-0-------(0)---------------------0-------(0)-------------------|
Clean tone let ring Play 4 times
|---------------------------------------------------------------|
|---------------------------------------------------------------|
|-3---------3--------3--------3---------------------4-----------|
|----1---------1--------1--------1---------------2--------------|
|-------1---------1--------1--------1---------2-----------------|
|-----------------------------------------0---------------------|
P.M............................................
|-----------------------------------------------|
|-----------------------------------------------|
|-----------------------------------------------|
|-----------------------------------------------|
|-----------------------------------------------|
|-0-0-0-0-0-0-0---0-0-0---0-0-0-0-0---0-0-0-0-0-| MORE \
| These 2 toghether twice
..............................................
|-----------------------------------------------------|
|-----------------------------------------------------|
|-----------------------------------------------------|
|-----------------------------------------------------|
|------------------------------------------------3----|
|-0-0-0-0-0-0-0-0---0-0-0---0-0-0-0-0---0-0-0-0--1----|
P.M.................
|----------------------|
|----------------------|
|----------------------|
|----------------------|
|-3-----5--6--5------3-|
|-1--0--3--4--3---0--1-|
W/ "Mute souls end in silence"
P.M............................. .......................................
|----------------------------------------------------------------------------|
|----------------------------------------------------------------------------|
|----------------------------------------------------------------------------|
|----------------------------------------------------------------------------|
|-2-2-2-2-2-2-2-2--2--2-2-2-2-2--3--2-2-2---2-2-2-2--2--3-----5--6--5------3-|
|-0-0-0-0-0-0-0-0--0--0-0-0-0-0--1--0-0-0---0-0-0-0--0--1--0--3--4--5---0--1-|
P.M..................
|-------------------------|---------------------|
|-------------------------|---------------------|
|-8-----------------------|-----------0----/----|
|-6-----------------------|--------------/------|
|-6-----------------------|------------/-----0--|
|----0--0--0-0-0--0-0-0-0-|---------------------|
P.M......................... ...........
|---------------------------------------------------------------|
|---------------------------------------------------------------|
|-8-------------------------------------------------------------|
|-6-------------------------------------------------------------|
|-6--------------------------------2--------------3-\--2--------|
|----0--0--0-0-0--0-0-0-0----0--0--0----1---1-----1-\--0--------|
|---------------------------------------------------------------|
|---------------------------------------------------------------|
|---------------------------------------------------------------|
|---5----------(5)-----------------2----------------------------|
|---3----------(3)-----------------2----------------------------|
|---3----------(3)-----------------0----------------------------|

GTR I
|---------------------------------------------------------------|
|---------------------------------------------------------------|
|---------------------------------------------------------------|
|---------------------------------------------------------------|
|-/3---------------(3)--------------/7-----------(7)------------|
|---------------------------------------------------------------|
| |
| |
| GTR II |
|---------------------------------------------------------------|
|---------------------------------------------------------------|
|---------------------------------------------------------------|
|---------------------------------------------------------------|
|---------------------------------------------------------------|
|-/8---------------(8)--------------0-----------(0)-------------|
2nd time
|---------------------------|-----------------------------------|
|---------------------------|-----------------------------------|
|-5-------------------------|----4------------------------------|
|-5-------------------------|----4------------------------------|
|-3---------7--6--5------2--|----2------------------------------|
|-----------5--4--3------0--|-----------------------------------|
|---------------------------------------------------------------|
|---------------------------------------------------------------|
|---7/9-------9/11\7--------7/9---9---9/12--12-----9------------|
|---------------------------------------------------------------|
|---5/7-------7/9\-5--------5/7---7---7/10--10-----7------------|
|---------------------------------------------------------------|
|---------------------------------------------------------------|
|---------------------------------------------------------------|
|---9-----9/11\7---7/9\5---5/7\4--4-----4---5----5--5\4---4-----|
|---------------------------------------------------------------|
|---7-----7/9\-5---5/7\3---3/5\2--2-----2---3----3--3\2---2-----|
|---------------------------------------------------------------|
|---------------------------------------------------------------|
|------------------------------------------7~~~~--8--3--3/5-----|
|-9~~~~~~~~~---------------7~~~~~-7--7--9-----------------------|
|----------------9---10-----------------------------------------|
|-------------7-------------------------------------------------|
|---------------------------------------------------------------|
|---------7----------------------7--------------7---------------|
|--8--10-----10---8---7---8--10-----10---8--10-----10--8p7------|
|----------------------------------------------------------9----|
|---------------------------------------------------------------|
|---------------------------------------------------------------|
|---------------------------------------------------------------|
|---------------------------------------------------------------|
|--7--7--8----10-/-8-----7h8-8p7/12~~~~~~~~~~~~~~~ 12-----------|
|---------------------------------------------------------------|
|---------------------------------------------------------------|
|---------------------------------------------------------------|
|---------------------------------------------------------------|
*VOLUME KNOB SWELLS
< > < > < > < > < > < > < > < > < > < > < > < > < > < > < > < > < >





Ваше мнение



Капча

Рекомендуем