Cut-throat - Sepultura

Written by Sepultura
5-string bass tuned down 1/2 step

INTRO:
G|---------------------------------------------------|
D|---------------------------------------------------|
A|---------------------------------------------------|
E|---------------------------------------------------|
B|--0--0--0--0--0--0--0--0--0--0--0--0--0h1--1--1h2--|

CHORUS:
A|--------------------------------|
E|--------------------------------|
B|--0--0--0---0--0--0---0h1--1h2--|

VERSE:
A|--------------------------------------|
E|--------------------------------------|
B|--0--0--0--0--0--0--0--0--0--0--0--0--|

A|---------------------------------|
E|--7--7--7--7--7--7h8--8--8h9--9--|
B|---------------------------------|

BRIDGE:
A|-----------| PLAY
E|-----------| FOUR
B|--0--0--1--| TIMES

A|--------------------------| PLAY
E|-----2--1-----2--1--2--1--| FOUR
B|--0--------0--------------| TIMES

A|-----------------------------
E|-----------------------------
B|--0--0--0--0--0--0--0--0--0--... (KEEP PEDALING Bb)

transcribed by max asare
--
[email protected] (Judy Letostak)
The Music Shop BBS (619)423-4970
over 5,000 guitar/bass tab, much more!!!
Sysop's Email me about MetalNet a music Network, with messages, files
games....
°





Ваше мнение



Капча