BORN STUBBORN-sepultura
tabbed by JagZ
ok this is in drop D tuning (ive seen tabs where its totally strange
but my version sounds good enough)
ive done this from memory coz i lent the CD to my m8 so i havent included
how many repeats etc.
INTRO
=====
e|------------------------------|
B|------------------------------|
G|------------------------------|
D|------------------------------|
A|--00-0-0-00---00-0-0-00-------|
D|--00-0-0-00---00-0-0-00-------|
VERSES
======
e|--------------------------------------------------|
B|--------------------------------------------------|
G|--------------------------------------------------|
D|--------4-5---------4-5---------4-5---------4-1---|
A|-0-0-00-4-5--0-0-00-4-5--0-0-00-4-5--0-0-00-4-1---|
D|-0-0-00-4-5--0-0-00-4-5--0-0-00-4-5--0-0-00-4-1---|
BREAK 1
=======
e|------------------------------------------|
B|------------------------------------------|
G|------------------------------------------|
D|--00-00-0-00-1-4-5-1----------------------|
A|--00-00-0-00-1-4-5-1----------------------|
D|--00-00-0-00-1-4-5-1----------------------|
CHORUS
======
e|------------------------------------------|
B|------------------------------------------|
G|------------------------------------------|
D|---0--6-0-6-0--6-0-6----------------------|
A|---0--6-0-6-0--6-0-6----------------------|
D|---0--6-0-6-0--6-0-6----------------------|
BREAK 2
=======
e|------------------------------------------|
B|------------------------------------------|
G|------------------------------------------|
D|--1p0-1-0-1-4-1---------------------------|
A|--1p0-1-0-1-4-1---------------------------|
D|--1p0-1-0-1-4-1---------------------------|





Ваше мнение



Капча