Sepultura: Beneath the Remains

Acoustic Guitar

4/4
Let all notes ring throughout. G6
e:------------0-----------------------0----------|--------------------0-------|
B:---------0-----0-----------------0-----0-------|--------0--------------0----|
G:------5-----------5-----------5-----------5----|-----4-----4----------------|
D:---7-----------------7-----7-------------------|--5-----------------------5-|
A:0-----------------------0----------------------|----------------------------|
E:-----------------------------------------------|----------------------------|

Amadd9 G6
e:-------0-------------|-------------0-----------------------0-----------|-----|
B:----3---------3------|----------0-----0-----------------0-----0--------|-----|
G:-4---------------0---|-------5-----------5-----------5-----------5-----|----4|
D:---------------------|----7-----------------7-----7-----------------7--|-5---|
A:---------------------|-0-----------------------0-----------------------|-----|
E:---------------------|-------------------------------------------------|-----|

Fmaj9
e:-----------0--------------0--------------|-------------0--------------------|
B:--0-----------0--------3--------3--------|----------6-----6-----------------|
G:-----4--------------4-----------------0--|-------0-----------0-----------0--|
D:-----------------5-----------------------|----7-----------------7-----7-----|
A:-----------------------------------------|-8-----------------------8--------|
E:-----------------------------------------|----------------------------------|

Em Fmaj9
e:---0------------|---------0--------------------0-----------|-------------0---|
B:6-----6---------|---------0--------------------0-----------|----------6-----6|
G:---------0------|---------------0-----------0--------------|-------0---------|
D:----------------|------9--------------------------------0--|----7------------|
A:------------8---|---7--------------7-----7-----------7-----|-8---------------|
E:----------------|0--------------------0--------------------|-----------------|

Em Am7
e:--------------------0------------|---------0--------------------0-----||------|
B:-----------------6-----6---------|---------0-----0--------------0-----||------|
G:--0-----------0-----------0------|------------------0-----------0-----||o-----|
D:-----7-----7---------------------|------9--------------------9--------||o--7--|
A:--------8--------------------8---|---7--------------------7-----------||-0----|
E:---------------------------------|0--------------------0--------------||------|

Eb
e:------0-----------------------0------------|--------------------------------|
B:---8-----8-----------------8-----7---------|---------4--------------------4-|
G:5-----------5-----------5-----------5------|------3--------3-----------3----|
D:---------------7-----7-----------------7---|---5--------------5-----5-------|
A:------------------0------------------------|6--------------------6----------|
E:-------------------------------------------|--------------------------------|

2/4 4/4
e:------------|-------------------0------||--------||
B:------------|----------------0-----0---||--------||
G:----3-------|-------5-----5-----------o||--------||
D:-------5----|----7-----7--------------o||--------||
A:------------|-0------------------------||-0------||
E:------------|--------------------------||--------||





Ваше мнение



Капча