Sepultura: Arise

Intro:
Gtr. I
E|-----------------|----------------------|-------------------------|
B|-----------------|----------------------|-------------------------|
G|-----------------|----------------------|-------------------------|
D|-----------------|----------------------|-------------------------|
A|-3-3-6-3-3-3-3-2-|----------------------|---------------3-3-3-3-3-|
E|-1-1-4-1-1-1-1-0-|-0-0-0-0-0-0--0-0-0-0-|-0-0-0-0-0-0-0-1-1-1-1-1-|

E|------------------------|
B|------------------------|
G|------------------------|
D|---------------------~~-|
A|-2---7---6---6---6-6-7--|
E|-0-0---0---0---0--------|

Gtr. II just doubles all the power chords in the above intro

Gtrs. I & II: (Play x4)
E|---------------------------|-------------|
B|*--------------------------|------------*|
G|*--------------------------|------------*|
D|---------------------------|-------------| followed by an E5 and two
A|-----------------------7---|-6---6---6-7-| F5 chords
E|-0-0-0-0-0-0-0-0-0-0-0---0-|---0---0-----|

E|-----------------------------|-----------------------|
B|*----------------------------|----------------------*|
G|*----------------------------|----------------------*| (Play x4)
D|-----------------------------|-----------------------|
A|-2---------------------------|-----------------2-3-3-|
E|-0-0--0-0-0-0-0--0-0-0-0-0-0-|-0-0-0-0-0-0-0-0-0-1-1-|
_____________________________
$/$ |1.,2.,3. |4.
E|-----------------|---------------|---------------||
B|*----------------|--------------*|---------------||
G|*----------------|--------------*|---------------||
D|-----------------|---------------|---------------||
A|-2-2-7---6---6---|-6---6---6-6-7-|-6---6---2-3-3-||
E|-0-0---0---0---0-|---0---0-------|---0---0-0-1-1-||

1st, 2nd verses: Obscured by the sun, etc. (play 3x)
E|---------------------------|-----------------------|
B|---------------------------|-----------------------|
G|---------------------------|-----------------------|
D|---------------------------|-----------------------|
A|-2-------------------------|-----------------2-3-3-|
E|-0-0-0-0-0-0-0-0-0-0-0-0-0-|-0-0-0-0-0-0-0-0-0-1-1-|

w/Fill 1 1st time (2nd time to Coda)
Play Rhy. Fill 1 2nd time
E|---------------------------|-------------------------||
B|---------------------------|-------------------------||
G|---------------------------|-------------------------||
D|---------------------------|-------------------------||
A|-2-------------------------|---------------------3-3-||
E|-0-0-0-0-0-0-0-0-0-0-0-0-0-|-0-0-0-0-0-0-0-0-0-0-1-1-||

Fill 1 (Gtr. III): Rhy. Fill 1 (Gtrs. I & II):
|---------|------|-------|| E|-----------------------||
|---------|------|-------|| B|-----------------------||
|-10--10--|--12--|--(12)-|| G|-----------------------||
|---------|------|-------|| D|-----------------------||
|-8---8---|--10--|-------|| A|-----------------2-3-3-||
|---------|------|-------|| E|-0-0-0-0-0-0-0-0-0-1-1-||

1st Chorus: Obliteration of mankind.
w/Fill 1
E|---------|----------|----------------|----------------|
B|---------|----------|----------------|----------------|
G|---------|----------|----------------|----------------|
D|---------|----------|----------------|----------------|
A|-5--(5)--|--(5)--3--|-6--6-6-6-6-6-6-|-6-6-6-6---3--3-|
E|-3--(3)--|--(3)--1--|-4--4-4-4-4-4-4-|-4-4-4-4-4-1--1-|

D.S. $/$ al Coda
Under a pale grey sky. We shall arise.
E|---------|----------|----------------|----------------||
B|---------|----------|----------------|----------------||
G|---------|----------|----------------|----------------||
D|---------|----------|----------------|----------------||
A|-5--(5)--|--(5)--3--|-6--6-6-6-6-6-6-|-4-4-6--3-3-3-3-||
E|-3--(3)--|--(3)--1--|-4--4-4-4-4-4-4-|-2-2-4--1-1-1-1-||

Coda: Quarter-time Feel
E|---------|-----------------|-----------|-----------------|-----------|
B|---------|-----------------|-----------|-----------------|-----------|
G|---------|-----------------|-----------|-----------------|-----------|
D|-2--(2)--|-----------------|-3-2--(2)--|-----------------|-3-2--(2)--|
A|-2--(2)--|-2-2-2-2-2-2-2-2-|-3-2--(2)--|-2-2-2-2-2-2-2-2-|-3-2--(2)--|
E|-0--(0)--|-0-0-0-0-0-0-0-0-|-1-0--(0)--|-0-0-0-0-0-0-0-0-|-1-0--(0)--|

(play 4 times)
E|-----------------|-----------|-----------------|
B|-----------------|*----------|----------------*|
G|-----------------|*----------|----------------*|
D|-----------------|-----------|-----------------|
A|-2-2-2-2-2-2-2-2-|-3-2--3-6--|-3-2-2-2-2-2-2-2-|
E|-0-0-0-0-0-0-0-0-|-1-0--1-4--|-1-0-0-0-0-0-0-0-|

Half-time Feel (play 4 times)
E|-----------------|-----------------|
B|*----------------|----------------*|
G|*----------------|----------------*|
D|-----------------|-----------------|
A|-----------------|-----------------|
E|-4-3-1-4-3-1-3-2-|-0-2-1-0-0-0-0-0-|

E|-----------------|---------------|--------------------------------||
B|-----------------|---------------|--------------------------------||
G|-----------------|---------------|--------------------------------||
D|-----------------|---------------|--------------------------------||
A|-65---65---54-|---43---2--2--|-65---65---54---43---2--5--||
E|-43-0-43-0-32-|-0-21-0-0--0--|-43-0-43-0-32-0-21-0-0------||

Bridge: Quarter-time Feel
I see the world old, etc.
E|-----------------|-----------------|-----------------|---------------|
B|-----------------|-----------------|-----------------|---------------|
G|-----------------|-----------------|-----------------|---------------|
D|-----------------|-----------------|-----------------|---------------|
A|-2-2-2-2-2-2-2-2-|-2-2-2-2-2-2-2-2-|-2-2-2-2-2-2-2-2-|-65---65---6-|
E|-0-0-0-0-0-0-0-0-|-0-0-0-0-0-0-0-0-|-0-0-0-0-0-0-0-0-|-43-0-43-0-4-|

I see the world dead, etc.
E|-----------------|-----------------|-----------------|--------------||
B|-----------------|-----------------|-----------------|--------------||
G|-----------------|-----------------|-----------------|--------------||
D|-----------------|-----------------|-----------------|--------------||
A|-2-2-2-2-2-2-2-2-|-2-2-2-2-2-2-2-2-|-2-2-2-2-2-2-2-2-|65---65---6-||
E|-0-0-0-0-0-0-0-0-|-0-0-0-0-0-0-0-0-|-0-0-0-0-0-0-0-0-|43-0-43-0-4-||

Rhy. Fig. 1 (Gtrs. I & II) during solo:
E E E E E E E E E E E E E E E E E E E E E E
e e e s s s s s s e e e e e s s s s s s e e

G#5G5 E G#5G5 E G#5G5 E G#5G5 E G#5 F#5 (End Rhy. Fig. 1)
e e e e e e e e e e e e q q

Guitar Solo (Gtr. III): Original Feel (w/Rhy. Fig. 1 four times)
E|-N.H.-------------|----w/bar---|--------------~~~--|
B|-3----------------|------0-/---|-(0)---------/(0)-|
G|-grad. dive w/bar-|-------/----|-----------/------|
D|------------------|------/-----|-----_____/-------|
A|------------------|---- -1/2 --|--- -1/2 ----------|
E|------------------|------------|-------------------|

dips w/bar
/ / / /
E|------------------|-------------------------------|----------------|
B|------------------|-------------------------------|----------------|
G|------------------|-/9h12-(12)-11-(11)-11p9h11-|-12p9h12p9-9h11-|
D|-0----------------|-------------------------------|----------------|
A|-grad. dive w/bar-|-------------------------------|----------------|
E|------------------|-------------------------------|----------------|

/ / / // / /
E|----------------------|--------------------~~~~~~~~------|
B|-----------~~~--------|-----------~~~~-----9-----------7-|
G|-9h12p9h12p9---12p9h12p9h12p9h12p9-----6/9----------/9---|
D|----------------------|----------------------------------|
A|----------------------|----------------------------------|
E|----------------------|----------------------------------|

E|-~~~-P.H.------|------------------------|----------------|
B|-9---9------7h9h11-7--------------------|-7-~~~~~---8-10-|
G|---------/9----|-----9-6h7h9-7-9-6-7h9-|---9-----9------|
D|---------------|------------------------|----------------|
A|---------------|------------------------|----------------|
E|---------------|------------------------|----------------|

E|-7-----------7--------------7----------|
B|---x-10-8-10---10-10-7h8h10---10-10-7h8|
G|---------------------------------------|
D|---------------------------------------|
A|---------------------------------------|
E|---------------------------------------|

E|----7--------------7----------------7-9-| continue this from the above
B|h10---10-10-7h8h10---10-10-7h8h10-x-----| bar (it wouldn't fit on one
G|----------------------------------------| line, sorry)
D|----------------------------------------|
A|----------------------------------------|
E|----------------------------------------|

T
E|-10-9-7-----------------|----------------||
B|--------9-7-9-7---------|----------------||
G|----------------9-6-7-9-|-7-6------10-(10)|
D|------------------------|-----9p6--------||
A|------------------------|----------------||
E|------------------------|----------------||

Gtrs. I & II: G5(wh.)
T T T T T
E|-------------------------------|
B|-------------------------------| (cont. this from prev.
G/12p10-12p8-12p7-12p8-12p7-12p5-| bar also)
D|-------------------------------|
A|-------------------------------|
E|-------------------------------|

F5(q) G#5(q) e e e e e e
T T T T T T
E|-------------------------------|---------------------------|
B|-------------------------------|-----~~~~~~~~~~~~----------|
G|-12p7-12p8-12p7-12p5-12p7-12p8-|-(8)/13-----------12h13p12-|
D|-------------------------------|---------------------------|
A|-------------------------------|---------------------------|
E|-------------------------------|---------------------------|

e e e e e e F5(q) G5(wh.)
E|---------------|----------------------------------|
B|-~~~~~~~~------|----------------------------------|
G|-(12)-----5/13-|-13h15p13-12h13p0-10h12p0-12h13p0-|
D|---------------|----------------------------------|
A|---------------|----------------------------------|
E|---------------|----------------------------------|

F5(q)
E|-------------------------------|
B|-------------------------------|
G|-10h12p0-8h10p0-10h12p0-8h10p0-|
D|-------------------------------|
A|-------------------------------|
E|-------------------------------|

G#5(q) e e e e e e
/+1/2 echo repeats
E|---------------------------------|
B|---------------------------------|
G|-7h8h10p8p7-(7)------------------|
D|---------------------------------|
A|---------------------------------|
E|---------------------------------|

Gtrs. I & II: (play 4 times)
E|----------------|---------------|-----------------|---------------|
B|----------------|---------------|*----------------|--------------*|
G|----------------|---------------|*----------------|--------------*|
D|----------------|---------------|-----------------|---------------|
A|-3-3-6--3-3-3-3-|-2-------------|-2-2-7---6---6---|-6---6---6-6-7-|
E|-1-1-4--1-1-1-1-|-0-------------|-0-0---0---0---0-|---0---0-------|

3rd Verse:
Victims of war,
E|---------------------------|------------------|
B|---------------------------|------------------|
G|---------------------------|------------------|
D|-2------------2------------|------------2---2-|
A|---------------------------|------------------|
E|---1--1-1-1-1---1--1-1-1-1-|-1--1-1-1-1---1---|

seeking some
E|---------------------------|
B|---------------------------|
G|---------------------------|
D|-1------------1------------|
A|---------------------------|
E|---1--1-1-1-1---1--1-1-1-1-|

salvation. Last wish,
E|--------------------------------|---------------------------|
B|--------------------------------|---------------------------|
G|--------------------------------|---------------------------|
D|--------------------------------|-2------------2------------|
A|--------------------------------|---------------------------|
E|-1-1-1-1-1-1-1-1-1--1-1-1-1-1-1-|---1--1-1-1-1---1--1-1-1-1-|

fatality.
E|------------------------|---------------------------------|
B|------------------------|---------------------------------|
G|------------------------|---------------------------------|
D|----------------2---2---|-1------------1------------------|
A|------------------------|---------------------------3--5--|
E|-1--1-1-1-1-1-1---1---1-|---1--1-1-1-1---1--1-1-0-0-1--3--|

I've no land,
E|--------------------------|---------------------|
B|--------------------------|---------------------|
G|--------------------------|---------------------|
D|-2-----------2------------|---------------2---2-|
A|--------------------------|---------------------|
E|---1--1-1-1----1--1-1-1-1-|-1-1-1-1-1-1-1---1---|

I'm
E|---------------------------|
B|---------------------------|
G|---------------------------|
D|-1------------1------------|
A|---------------------------|
E|---1--1-1-1-1---1--1-1-1-1-|

from nowhere.
E|--------------------------------|
B|--------------------------------|
G|--------------------------------|
D|--------------------------------|
A|--------------------------------|
E|-1-1-1-1-1-1-1-1-1--1-1-1-1-1-1-|

Ashes to ashes,
E|--------------------------|---------------------|
B|--------------------------|---------------------|
G|--------------------------|---------------------|
D|-2-----------2------------|---------------2---2-|
A|--------------------------|---------------------|
E|---1--1-1-1----1--1-1-1-1-|-1-1-1-1-1-1-1---1---|

dust to dust
E|---------------------------|------------------------|
B|---------------------------|------------------------|
G|---------------------------|------------------------|
D|-1------------1------------|------------------------|
A|---------------------------|-------------------3--3-|
E|---1--1-1-1-1---1--1-1-1-1-|-1-1-1-1-1-1-1-1-0-1--1-|

Face the enemy, Manic thoughts, etc.
w/Fill 1 (4th time only)
E|----------------------------|------------------------|
B|----------------------------|------------------------|
G|----------------------------|------------------------| (Play 4x, each
D|----------------------------|------------------------| time with
A|-2--------------------------|-----------------2-3--3-| appropiate
E|-0-0-0-0-0-0-0--0-0-0-0-0-0-|-0-0-0-0-0-0-0-0-0-1--1-| lyrics)

______________________________
2nd Chorus: |1. |2.
w/Fill 1
E|---------|----------|----------------|---------------|| (Obliter...)
B|*--------|----------|---------------*|---------------|| (etc.)
G|*--------|----------|---------------*|---------------||
D|---------|----------|----------------|---------------||
A|-5--(5)--|--(5)--3--|-6--6-6-6-6-6-6-|-6-6-6-6-6-6-6-||
E|-3--(3)--|--(3)--1--|-4--4-4-4-4-4-4-|-4-4-4-4-4-4-4-||

Outro:
E|-----------|-----------------|-----------|-----------------|-----|
B|-----------|-----------------|-----------|-----------------|-----|
G|-----------|-----------------|-----------|-----------------|-----|
D|-3-2--(2)--|-----------------|-3-2--(2)--|-----------------|-3-2-|
A|-3-2--(2)--|-2-2-2-2-2-2-2-2-|-3-2--(2)--|-2-2-2-2-2-2-2-2-|-3-2-|
E|-1-0--(0)--|-0-0-0-0-0-0-0-0-|-1-0--(0)--|-0-0-0-0-0-0-0-0-|-1-0-|





Ваше мнение



Капча