E ------|------|------|------|------|------|-----------|-1-1-1-----1-|
B ------|------|------|------|------|------|-4-4-4-3-1-|-------4-3---|
G ------|------|------|------|------|------|-----------|-------------|
D ------|------|------|------|------|------|-----------|-------------|
A ------|------|------|------|------|------|-----------|-------------|
E ------|------|------|------|------|------|-----------|-------------|
E -1-1-------------|---|---------1-|-1-1-----1-|---1-------------|----
B -----4-3-1-4-3-1-|-4-|-4-4---1---|-----4-3---|-6---4-4-1-4-3-1-|---1
G -----------------|---|-----7-----|-----------|-----------------|-0--
D -----------------|---|-----------|-----------|-----------------|----
A -----------------|---|-----------|-----------|-----------------|----
E -----------------|---|-----------|-----------|-----------------|----
E -----|-----------------|---------|-----------------|------|------|--
B -----|-----1-----1-----|---1-----|-----1-----1-----|------|------|--
G -0-1-|-1-1---3-3-----0-|-0---0-1-|-1-1---3-3-----0-|------|------|--
D -----|-------------3---|---------|-------------3---|------|------|--
A -----|-----------------|---------|-----------------|------|------|--
E -----|-----------------|---------|-----------------|------|------|--
E ----|------|-11-|-11-11-10-8-13-|-13-13-11-10-13-|-13-13-11-10-8-11-
B ----|------|----|---------------|----------------|------------------
G ----|------|----|---------------|----------------|------------------
D ----|------|----|---------------|----------------|------------------
A ----|------|----|---------------|----------------|------------------
E ----|------|----|---------------|----------------|------------------
E 10-8-|-11-|-11-11----8-11-8-13-|-13-13-11-10-13-|-13-13-11-10-8-11-1
B -----|----|-------15-----------|----------------|-------------------




Ваше мнение



Капча

Комментарии

1
a solo gde bljat? huynja eto a ne solo :D