Intro

1----------------------------------------------------------
2----------------------------------------------------------
3----------------------------------------------------------
4-5--5~8-8~10-3--3-8--8------------------------------------
5-3--3~6-6~8--1--1-6--6------------------------------------
6----------------------------------------------------------
(4 раза)

1----------------------------------------------------------
2-0-2-3-3-5-3-2-0------------------------------------------
3------------------2--2-2-2---2-2-4-4--4-2-----------------
4---------------------------4------------------------------
5----------------------------------------------------------
6----------------------------------------------------------

Hm D
Мой дед, родная династия.
A E
Он лихой был казак.
Hm D
Работящий был царство небесное.
A E
Он учил меня так:
Hm D
Ты родной береги свою голову.
A E
Злых людей много так.
Hm D
Почитай отца и матушку.
A E
Да не лезь ты в просак.
Hm D
Дорожи ты дружбою верною.
A E
И друзей не бросай.
Hm D
А коль встретишь жену себе нежную.
A E
То люби и ласкай.
E Hm
Люби и ласкай.
припев
Hm Em
Снова новый день начинается!
Hm Em
А станицей зоря занимается!
D A
Позаброшу дела!
A E
И сяду за стол!
Hm Em
Сейчас придут друзья закодычные!
Hm Em
Да одень ты хоть платье приличное!
D A
И давай все на стол!
A E
Тащи самогон!

Мой дед родная династия.
Он лихой был казак.
А я в него пошел сердце доброе.
Получается так:
С хозяйством своим управляюся.
И детей мал мала.
У меня жена, эх! баба справная.
Как обнимет меня.
Как обнимет меня.
припев
Снова новый день начинается!
А станицей зоря занимается!
Позаброшу дела!
И сяду за стол!
Сейчас придут друзья закодычные!
Да одень ты хоть платье приличное!
И давай все на стол!
Тащи самогон!
Посидим за столом пообедаем!
Запоем, самогонки отведаем!
Обниму я друзей!
Мы классно живем!
Классно живем!!!

Solo

припев
Снова новый день начинается!
А станицей зоря занимается!
Позаброшу дела!
И сяду за стол!
Сейчас придут друзья закодычные!
Да одень ты хоть платье приличное!
И давай все на стол!
Тащи самогон!
Бросьте вы ваше бабье судачество!
Встали быстро и пьем за казачество!
Обниму я друзей!
Мы классно живем!
Классно живем!!!




Ваше мнение



Капча