From [email protected] Mon May 12 14:08:26 1997
Date: Tue, 29 Apr 1997 18:32:59 -0700
From: Curdt
To: [email protected]
Subject: All I Know - Screaming Trees
Screaming Trees 29 April 97
All I Know - from DUST
v. conner, g.conner, m. lanegan
*note -song starts with an electric piano.
-number of strums not indicated here.
Verse:
A5 C5 G5 D5
x---------------------------------------------------------
x---------------------------------------------------------
x---------------5-------------------------------7---------
x---7-----------5---------------5---------------7---------
x---7-----------3---------------5---------------5---------
x---5---------------------------3-------------------------
Bite the thorn that pierced the skin....
Pre Chorus: (same)
A5 C5 G5 D5
x---------------------------------------------------------
x---------------------------------------------------------
x---------------5-------------------------------7---------
x---7-----------5---------------5---------------7---------
x---7-----------3---------------5---------------5---------
x---5---------------------------3-------------------------
Gotta get away, gotta get away....
Chorus:
A5 G5 D5 C5 A5
x---------------------------------------------------------
x---------------------------------------------------------
x-------------------------------7--------5----------------
x---7-----------5---------------7--------5-------7--------
x---7-----------5---------------5--------3-------7--------
x---5-----------3--------------------------------5--------
Alllllll that I know........
Sorry, haven't figured out the fills or the incredible guitar solo.
If anyone would like to add to this, please do.





Ваше мнение



Капча

Рекомендуем