Song: The Scorn Turrent
Band: Satyricon
Album: Rebel Extravaganza
Tabbed by: C.J. Clark [email protected]

Opener B: (x4)
e|--------------------------------------------------------------
B|-999----------------------------------------------------------
G|-----9-8-9-4-5-7----------------------------------------------
D|--------------------------------------------------------------
A|--------------------------------------------------------------
E|--------------------------------------------------------------

Opener A: (x2) Part of this might be a little off, play around with it...
e|--------------------------------------------------------------
B|--------------------------------------------------------------
G|-10-9-5-4-2-1-4-7---------------------------------------------
D|--------------------------------------------------------------
A|--------------------------------------------------------------
E|--------------------------------------------------------------

Repeat Full Opener

Riff 1: (x4)
e|--------------------------------------------------------------
B|-5-5-555-8--8--8--8--6-6-6-5-5-5555-4-4-4444-5----------------
G|-7-7-777-10-10-10-10-8-8-8-7-7-7777-6-6-6666-7----------------
D|-7-7-777-10-10-10-10-8-8-8-7-7-7777-6-6-6666-7----------------
A|--------------------------------------------------------------
E|--------------------------------------------------------------

Riff 2: (x12) (Play fucking fast!!)
e|--------------------------------------------------------------
B|--------------------------------------------888888------------
G|--888888-777777-888888-777777-888888-777777--------777777-----
D|--------------------------------------------------------------
A|--------------------------------------------------------------
E|--------------------------------------------------------------

Riff 3: (x6) Modification of 2
e|--------------------------------------------------------------
B|----------------------8---------------------------------------
G|-8-88-7-8-88-7-8-88-7---7-------------------------------------
D|--------------------------------------------------------------
A|--------------------------------------------------------------
E|--------------------------------------------------------------

Riff 4a: (x4)
e|--------------------------------------------------------------
B|-9-9---13---13-10-7-------------------------------------------
G|--------------------------------------------------------------
D|--------------------------------------------------------------
A|--------------------------------------------------------------
E|--------------------------------------------------------------

Riff 4b: (x3)
e|--------------------------------------------------------------
B|-9-9---13-13---10-7-9-10-7------------------------------------
G|--------------------------------------------------------------
D|--------------------------------------------------------------
A|--------------------------------------------------------------
E|--------------------------------------------------------------

Riff 5: (x12) Last three might be off...
e|--------------------------------------------------------------
B|-7-10-10-7-9-7------------------------------------------------
G|--------------------------------------------------------------
D|---------------9-88-------------------------------------------
A|--------------------------------------------------------------
E|--------------------------------------------------------------

Riff 6: (x2)
e|--------------------------------------------------------------
B|-9-10-13------9-10-13-12-10-12-13-----------------------------
G|---------11---------------------------------------------------
D|--------------------------------------------------------------
A|--------------------------------------------------------------
E|--------------------------------------------------------------

Riff 7: (x2) Hit each chord several times
e|--------------------------------------------------------------
B|-7---6---7---11-----------------------------------------------
G|-9---8---9---13-----------------------------------------------
D|-9---8---9---13-----------------------------------------------
A|--------------------------------------------------------------
E|--------------------------------------------------------------

Repeat Riff 6 (x2)
Repeat Riff 7 (x2)
Repeat Riff 6 (x2)

Riff 8: (x6) Modification of Riff 5
*There are two parts where they only play the first half,
those are the after the first time(not counted) and the last(not counted)
e|--------------------------------------------------------------
B|-7-10-7-9-7-9-9---7-10-7-9-7----------------------------------
G|-----------------------------9-8------------------------------
D|--------------------------------------------------------------
A|--------------------------------------------------------------
E|--------------------------------------------------------------

Riff 9a: (x4)
e|--------------------------------------------------------------
B|-9--9---8--9--9---10/7----------------------------------------
G|-11-11--10-11-11--12/9----------------------------------------
D|-11-11--10-11-11--12/9----------------------------------------
A|--------------------------------------------------------------
E|--------------------------------------------------------------

Riff 9b: (x2)
e|--------------------------------------------------------------
B|-11-11--10-11-11--12/8----------------------------------------
G|-13-13--12-13-13--14/10---------------------------------------
D|-13-13--12-13-13--14/10---------------------------------------
A|--------------------------------------------------------------
E|--------------------------------------------------------------

Riff 9c: (x2)
e|--------------------------------------------------------------
B|-9--9---8--9--9---11--9--9---8--9--9---11---------------------
G|-11-11--10-11-11--13--11-11--10-11-11--13---------------------
D|-11-11--10-11-11--13--11-11--10-11-11--13---------------------
A|--------------------------------------------------------------
E|--------------------------------------------------------------

Riff 10: (x2)
e|-9--9---8--9--9---8--5----------------------------------------
B|-11-11--10-11-11--10-7----------------------------------------
G|-11-11--10-11-11--10-7----------------------------------------
D|--------------------------------------------------------------
A|--------------------------------------------------------------
E|--------------------------------------------------------------

Repeat all of Riff 9

Repeat Riff 10

** Here is the best part of the song! Play fucking heavy!! **

Riff 11a: (x4)
e|-11-77777-11-77777-11-7777777777-8-8-8-8-8--77777-------------
B|-13-99999-13-99999-13-9999999999-1010101010-99999-------------
G|-13-99999-13-99999-13-9999999999-1010101010-99999-------------
D|--------------------------------------------------------------
A|--------------------------------------------------------------
E|--------------------------------------------------------------

Riff 11b: (X6) Hit each chord many times fast
e|-11-XX-11/7-XX------------------------------------------------
B|-13-XX-13/9-XX------------------------------------------------
G|-13-XX-13/9-XX------------------------------------------------
D|--------------------------------------------------------------
A|--------------------------------------------------------------
E|--------------------------------------------------------------

Play Riff 11a (x1)

Riff 11c:
e|-11-77777-11-77777-11-7777777777-8-8-8-8-8--77777-9-9-9-9-9---
B|-13-99999-13-99999-13-9999999999-1010101010-99999-1111111111--
G|-13-99999-13-99999-13-9999999999-1010101010-99999-1111111111--
D|--------------------------------------------------------------
A|--------------------------------------------------------------
E|--------------------------------------------------------------

Play Riff 11a (x1)
Play Riff 11c (x1)
Play Riff 11b (x12)

////////////////////////////////////////////////////////////////

There is the beast. By my opinion the best fucking song on the album.
Any criticism or compliments please E-mail me. Any changes that you
think are needed, feel free to do so and please report them to me.
Thanks and enjoy this killer song!! HAIL!!


Ваше мнение



Капча