Date: Fri, 19 Dec 1997 11:58:17 +0300 (MEST)
From: Kamil Serkan Gunturk
Subject: Mother North by Satyricon
"Mother North" by SATYRICON from the album Nemesis Divina.
Transcribed by Serkan Gunturk ( [email protected] )
Visit my home of black metal and guitar tabs at
http://www.geocities.com/SunsetStrip/Venue/index.html
Riff 1 (4 times)
E-|---------------------------------------------------------------------------|
B-|---------------------------------------------------------------------------|
G-|---------------------------------------------------------------------------|
D-|---------------------------------------------------------------------------|
A-|-------10-10-10-9-9-9-7-7-7-10-10-10-9-9-9---------------------------------|
E-|-0-0-0---------------------------------------------------------------------|
E-|---------------------------------------------------------------------------|
B-|---------------------------------------------------------------------------|
G-|---------------------------------------------------------------------------|
D-|-------10-10-10-9-9-9-7-7-7-9-9-9------------------------------------------|
A-|----------------------------------10-10-10---------------------------------|
E-|-7-7-7---------------------------------------------------------------------|
E-|---------------------------------------------------------------------------|
B-|---------------------------------------------------------------------------|
G-|-10-10-10-9-9-9-7-7-7-9-9-9-5-7-5-4-4-4-5-5-5------------------------------|
D-|---------------------------------------------------------------------------|
A-|---------------------------------------------------------------------------|
E-|---------------------------------------------------------------------------|
E-|---------------------------------------------------------------------------|
B-|---------------------------------------------------------------------------|
G-|-2-2-2-2-2-4-2-1-1-1-2-2-2-------------------------------------------------|
D-|---------------------------------------------------------------------------|
A-|---------------------------------------------------------------------------|
E-|---------------------------------------------------------------------------|

Riff 2 (4 times)
I will be glad if someone has a correction for this riff.
E-|---------------------------------------------------------------------------|
B-|---------------------------------------------------------------------------|
G-|---------------------------------------------------------------------------|
D-|----------------------12-12-12-9-9-9-12-12-12------------------------------|
A-|-0-0-0-7-7-7-12-12-12------------------------------------------------------|
E-|---------------------------------------------------------------------------|
E-|---------------------------------------------------------------------------|
B-|---------------------------------------------------------------------------|
G-|---------------------------------------------------------------------------|
D-|-10-10-10-7-7-7-10-10-10-9-9-9----------9-9-9------------------------------|
A-|-------------------------------10-10-10------------------------------------|
E-|---------------------------------------------------------------------------|

Play riff 1 twice
Play riff 2 twice
Riff 3 (6 times)
E-|---------------------------------------------------------------------------|
B-|---------------------------------------------------------------------------|
G-|---------------------------------------------------------------------------|
D-|-------------9-9-9---------------------------------------------------------|
A-|-------7-7-7-------10-10-10-12-12-12-9-9-9---------------------------------|
E-|-0-0-0---------------------------------------------------------------------|
E-|---------------------------------------------------------------------------|
B-|---------------------------------------------------------------------------|
G-|---------------------------------------------------------------------------|
D-|---------------------------------------------------------------------------|
A-|-10-10-10----------10-10-10-9-9-9----------9-9-9---------------------------|
E-|----------12-12-12----------------11-11-11---------------------------------|

Riff 4
E-|---------------------------------------------------------------------------|
B-|---------------------------------------------------------------------------|
G-|---------------------------------------------------------------------------|
D-|---------------------------------------------------------------------------|
A-|---7-9------7-9-10-12---7-9----9------------10-9~10~9----------------------|
E-|-0-----10-0-----------0-----10---10-9-7-6-7-----------10-------------------|
Riff 5 (4 times)
E-|---------------------------------------------------------------------------|
B-|---------------------------------------------------------------------------|
G-|---------------------------------------------------------------------------|
D-|-----------------6-6-6-6---------------------------------------------------|
A-|-6-6-6-6-7-7-7-7-4-4-4-4-7-7-7-7-2-2-2-2-----------------------------------|
E-|-4-4-4-4-5-5-5-5---------5-5-5-5-0-0-0-0-----------------------------------|
Riff 6
E-|---------------------------------------------------------------------------|
B-|---------------------------------------------------------------------------|
G-|-------4-4-4-------2-2-2---------------------------------------------------|
D-|-------------4-4-4-------5-5-5-4-4-4---------------------------------------|
A-|-2-2-2---------------------------------------------------------------------|
E-|---------------------------------------------------------------------------|
Riff 7
E-|---------------------------------------------------------------------------|
B-|---------------------------------------------------------------------------|
G-|---------------------------------------------------------------------------|
D-|-------4-4-4-------2-2-2---------------------------------------------------|
A-|-------------4-4-4-------5-5-5-4-4-4---------------------------------------|
E-|-2-2-2---------------------------------------------------------------------|
Riff 8 ( 2 times)
E-|---------------------------------------------------------------------------|
B-|---------------------------------------------------------------------------|
G-|---------------------------------------------------------------------------|
D-|---------------------------------------------------------------------------|
A-|-7/9-9-9-9-9-7/9-9-9-9-9-7/9-9-9-9-9-9\8-8/11-5/8--------------------------|
E-|-5/7-7-7-7-7-5/7-7-7-7-7-5/7-7-7-7-7-7\6-6/9--3/6--------------------------|
Riff 9 (4 times)
E-|---------------------------------------------------------------------------|
B-|---------------------------------------------------------------------------|
G-|---------------------------------------------------------------------------|
D-|---------------------------------------------------------------------------|
A-|-5/7-7-7-7-7-5/7-7-7-7-7-5/7-7-7-7-7-7\6-6-6\3-3---------------------------|
E-|-3/5-5-5-5-5-3/5-5-5-5-5-3/5-5-5-5-5-5\4-4-4\1-1---------------------------|

Play riff 8 twice
Play riff 1,2, and 3 again.
For suggestions and corrections email me at
[email protected]
^@




Ваше мнение



Капча