Du Some Hater Gud - Satyricon
From the Album Nemesis Divina
Copyright 1996, Moonfog
Tab Created On 10/04/98 19.33.53
Author Ugo Gasparri([email protected])
Hello here is the tab for this great song.
Du Som Hater Gud, peraphs one of best song of Nemesis Divina, we hope that you will
have a good play.
This Tab Was Created With TabXpert II by Ugo Gasparri
http://members.xoom.com/ugo_er_mejo/main.html
Tab Notation:
. - palm mute ph - pinched harmonic
/ - slide up to ah - artificial harmonic
- slide down to hr - natural harmonic
~ - vibrato p - pull off
bf - full bend h - hammer on
bh - bend half a step () - ghost note, sustained note
r - release bend pbh,f - prebend(h-half step, f-full)
t - tap th - tap harmonic
- tremolo; note; w - whammy; bar
* - see comment
Tuning: E(1:E, 2:B, 3:G, 4:D, 5:A, 6:E)
RIFF A
tr
E-|------------------------------------------------------------------------|
B-|------------------------------------------------------------------------|
G-|------------------------------------------------------------------------|GTR I
D-|------------------------------------------------------------------------|
A-|--8--9--8--6--8--9--8--6--9-----8---------------------------------------|
E-|------------------------------------------------------------------------|
| |
E-|------------------------------------------------------------------------|
B-|------------------------------------------------------------------------|
G-|------------------------------------------------------------------------|GTR II
D-|--------------------------------10--------------------------------------|
A-|--------------------------------8---------------------------------------|
E-|------------------------------------------------------------------------|
| |
G-|------------------------------------------------------------------------|
D-|------------------------------------------------------------------------| BASS
A-|--8--9--8--6--8--9--8--6--9-----8---------------------------------------|
E-|------------------------------------------------------------------------|
* Bass enters at second repetition

RIFF B
E-|------------------------------------------------------------------------|
B-|------------------------------------------------------------------------|
G-|------------------------------------------------------------------------|GTR I
D-|--10----11----10----8----10----11--10--8--------------------------------|
A-|--8-----9-----8-----6----8-----9---8---6--11--10--11--10--11--8---------|
E-|------------------------------------------9---8---9---8---9---6---------|
| |
E-|------------------------------------------------------------------------|
B-|------------------------------------------------------------------------|
G-|------------------------------------------------------------------------|GTR II
D-|--10----11----10----8----10----11--10--8--------------------------------|
A-|--8-----9-----8-----6----8-----9---8---6--11--10--11--10--11--8---------|
E-|------------------------------------------9---8---9---8---9---6---------|
| |
G-|------------------------------------------------------------------------|
D-|------------------------------------------------------------------------| BASS
A-|--8-----9-----8-----6----8-----9---8---6--------------------------------|
E-|------------------------------------------9---8---9---8---9---6---------|
* Nothing
*
*
RIFF C
E-|------------------------------------------------------------------------|
B-|------------------------------------------------------------------------|
G-|------------------------------------------------------------------------|GTR I
D-|--10----11----13----10----11----------------9----10---------------------|
A-|--8-----9-----11----------------11----10----7----8----------------------|
E-|--------------------------------9-----8---------------------------------|
| |
E-|------------------------------------------------------------------------|
B-|------------------------------------------------------------------------|
G-|------------------------------------------------------------------------|GTR II
D-|--10----11----13----10----11----------------9----10---------------------|
A-|--8-----9-----11----------------11----10----7----8----------------------|
E-|--------------------------------9-----8---------------------------------|
| |
G-|------------------------------------------------------------------------|
D-|--------------------10----11--------------------------------------------| BASS
A-|--8-----9-----11----------------------------7----8----------------------|
E-|--------------------------------9-----8---------------------------------|
* This is how we feel it.
* We think it's enough good with all that noise on it's not easy
* to understand the riffs.
FILL 1
E-|------------------------------------------------------------------------|
B-|------------------------------------------------------------------------|
G-|------------------------------------------------------------------------|GTR I
D-|---------10--9--10------------------------------------------------------|
A-|--8------8---7--8-------------------------------------------------------|
E-|--6---------------------------------------------------------------------|
| |
E-|------------------------------------------------------------------------|
B-|------------------------------------------------------------------------|
G-|------------------------------------------------------------------------|GTR II
D-|---------10--9--10------------------------------------------------------|
A-|--8------8---7--8-------------------------------------------------------|
E-|--6---------------------------------------------------------------------|
| |
G-|------------------------------------------------------------------------|
D-|------------------------------------------------------------------------| BASS
A-|---------8---7--8-------------------------------------------------------|
E-|--6---------------------------------------------------------------------|
* Nothing
*
*
KEYBOARD SOLO
E-|------------------------------------------------------------------------|
B-|------------------------------------------------------------------------|
G-|------------------------------------------------------------------------|GTR I
D-|--------------------1--3--4--3-----1--3--1-----1------------------------|
A-|-----------1--3--4--------------------------4-----4--3--4--3--1--3--1---|
E-|--1--2--5---------------------------------------------------------------|
E-|------------------------------------------------------------------------|
B-|------------------------------------------------------------------------|
G-|------------------------------------------------------------------------|GTR I
D-|------------------------------------------------------------------------|
A-|-----1------------------------------------------------------------------|
E-|--5-----2--1--2--1------------------------------------------------------|
| |
| RIFF D |
E-|------------------------------------------------------------------------|
B-|------------------------------------------------------------------------|
G-|------------------------------------------------------------------------|GTR II
D-|-----3--2--3--8--6--5--6------------------------------------------------|
A-|--2--1--0--1--6--4--3--4------------------------------------------------|
E-|--0---------------------------------------------------------------------|
| |
G-|------------------------------------------------------------------------|
D-|------------------------------------------------------------------------| BASS
A-|-----1--0--1--6--4--3--4------------------------------------------------|
E-|--0---------------------------------------------------------------------|
* Keyboard solo is played over riff D
* Add some legatoes somewhere, to give it the right sound
* Probably the II guitar IS WRONG


RIFF A x8
RIFF B x8
RIFF A x4
RIFF C x6
FILL 1 x4
RIFF A x4
FILL 1 x8
RIFF B x2
RIFF C till the end...

I hope this will be useful to someone.
Send any comments corrections or suggestions to :
[email protected]




Ваше мнение



Капча

Рекомендуем