SATYRICON - DARK MEDIEVAL TIMES
From the Album DARK MEDIEVAL TIMES
Copyright 1993 Moonfog Productions
Version 1.0 - June 1999
Transcribed by: Zack Demianczyk(MTD)
email Zack at [email protected], for questions or corrections
Visit my homepage Malignant Tablature Dominion at:
http://www.angelfire.com/ak2/MalignantTabs/index.html
Check Out 's Web Page, With More Transcriptions On It:
/
Check Out DEATH WARP, With More Transcriptions On It:
http://tiger.towson.edu/~dalvis1
/ slide up
slide down
p pull on
h hammer on
~ vibrato
pm .

Tuning: Standard
|---------------|
|---------------|
|---------------|
|---------------|
|-22222-333-444-|
|-00000-111-222-|
|--------------------------------------|
|--------------------------------------|
|--------------------------------------|
|-------00000000000-------000000000000-|
|-------44455544444-------444555666888-|
|-000000------------000000-------------|
|--------------|
|--------------|
|--------------|
|------6/8-7-7-|
|-2-3--4/6-5-5-|
|-0-1----------|
|------------|
|------------|
|------------|
|-8-9--6/7-7-|
|-6-7--4/5-5-|
|------------|
|--------------------------------------------------------------------|
|--------------------------------------------------------------------|
|----------------------------------------------------9-----9-----9---|
|-7-6------------------7-6------------------7-6-7------9-----9-----9-|
|-5-4-6-5----5----5----5-4-6-5----5----5----5-4-5--7-----7-----7-----|
|-----4-3-33-3-33-3-33-----4-3-33-3-33-3-33--------------------------|
|-----------------------------------------------------------------------|
|-----------------------------------------------------------------------|
|-----------------------------------------------------10---10---10---10-|
|-7-6------------------7-6------------------7-6-7---10---10---10---10---|
|-5-4-6-5----5----5----5-4-6-5----5----5----5-4-5--8----8----8----8-----|
|-----4-3-33-3-33-3-33-----4-3-33-3-33-3-33-----------------------------|
|---------------------------|
|---------------------------|
|---9--9--9------9--9--9----|
|--9--9--9--8---9--9--9--10-|
|-7--7--7---6--7--7--7----8-|
|---------------------------|
|---------------------------------------|
|---------------------------------------|
|---------------------------------------|
|-9-----11--9------11--9-11-12-11-9-8-9-|
|-7------9--7-------9--7--9-10--9-7-6-7-|
|-0-------------------------------------|
|-----------------------------------------------|
|-----------------------------------------------|
|-----------------------------------------------|
|--------9------------------9-------------------|
|-10-9---7-10-9--10-9-7-9---7-10-9-7---4-5-4--2-|
|--8-7------8-7---8-7-5-7------8-7-5---2-3-2--0-|
|---|
|---|
|-9-|
|-9-|
|-7-|
|---|
(note: there is a clean part in the backround of the part above
and I can't hear it to well but it's in the variation of the chord
above)
|-----------------------------------------------------|
|-----------------------------------------------------|
|---2--2--0--0---2--2--0--0---2--2--0--0----0--0--0--0|
|--0--0--3--2---0--0--3--2---0--0--3--2----0--0--0--0-|
|-0--0--0--0---0--0--0--0---0--0--0--0----3--2--3--2--|
|-----------------------------------------------------|
|---------------|
|---------------|
|-------0-0-000-|
|-00000-3h5-222-|
|---------------|
|---------------|
1.,3._______ 2._________ 4._________
|------------|-------------|------------|-----------|
|------------|-------------|------------|-----------|
|------------|-------------|------------|-----------|
|---7----7---|-5-------5---|5---------5-|-----5-----|
|-5---55---8-|---8--7----7-|--8--7--8---|-7-8---8-7-|
|--------------------------|------------|-----------|

1rst piccolo arranged for guitar
|-----------------------------------------------------------|
|---10----10-------------------------10---------------------|
|-7----77----7-10-9-7----7-9--7-9-10----10-9--10-9-7----7-9-|
|---------------------10-----------------------------10-----|
|-----------------------------------------------------------|
|-----------------------------------------------------------|
|-------------------------------------------------------------------------------|
|----------------------------10-8-10--------------------------------------------|
|-7---7--7-9-10-9-7----7-9-7---------7-9-10-9-7----7-9--7---7-9-10-9-7----7-9-7-|
|---7---------------10--------------------------10--------7------------10-------|
|-------------------------------------------------------------------------------|
|-------------------------------------------------------------------------------|
|------------------------------------------------------------------------------|
|-10-8-10-----------------------------10-8-------------------------------------|
|---------7-9-10-9-7----7-9-7--7-9-10------10--9-7-5h7-9-7----7-9h10-9----9--7-|
|--------------------10-------------------------------------7----------10------|
|------------------------------------------------------------------------------|
|------------------------------------------------------------------------------|
|-----------------------------------------------------------------------------------|
|----------10-8-----------------------------------------10-8-10---------------------|
|---7--7-9-----10--9h10-9--7-----7--7-9-10-9-7----7-9-7---------7-9-10-9-7----7-9-7-|
|-7----------------------------7---------------10--------------------------10-------|
|-----------------------------------------------------------------------------------|
|-----------------------------------------------------------------------------------|
|------------------------------------------------------------------------------------|
|-------------10-8-----------------------------------------------------------10-8-10-|
|---7--7-9-10------10--9-10-7--7-9-10-9-7----7-9-7----7--7-9-10-9-7----7-9-7---------|
|-7---------------------------------------10--------7---------------10---------------|
|------------------------------------------------------------------------------------|
|------------------------------------------------------------------------------------|
|--------------------------------------|
|--------------------------------------|
|-7-9-10-9-7----7-9-7----7--7-9-10-9-7-|
|------------10--------7---------------|
|--------------------------------------|
|--------------------------------------|
ending
|-----|
|-----|
|-4-3-|
|-2-1-|
|-----|
|-----|
|-------------------|------|--------|--------|------|
|-------------------|------|--------|--------|------|
|-2-22-2-22--2-22-2-|-4-44-|-4--5/7-|-7--54-|-4-3--|
|-0-00-0-00--3-33-3-|-2-22-|-2--3/5-|-5--32-|-2-1--|
|-------------------|------|--------|--------|------|
|-------------------|------|--------|--------|------|
(note: these are all the right ending but in to many
variations to right down just listen to the song
and figure it out)
2nd Piccolo part also arranged fot guitar
1.2._____________ 3.______________ 4._____________
|--------------|------------------|-----------------|----------------|
|---10----10---|------------------|----8----------8-|----8----8------|
|-7----77----7-|-10-9-7-----7-9-7-|-10---10-9--10---|-10---10---10-9-|
|--------------|---------10-------|-----------------|----------------|
|--------------|------------------|-----------------|----------------|
|--------------|------------------|-----------------|----------------|
|-------------------|------|--------|--------|------|
|-------------------|------|--------|--------|------|
|-2-22-2-22--2-22-2-|-4-44-|-4--5/7-|-7--54-|-4-3--|
|-0-00-0-00--3-33-3-|-2-22-|-2--3/5-|-5--32-|-2-1--|
|-------------------|------|--------|--------|------|
|-------------------|------|--------|--------|------|
(note: these are all the right ending but in to many
variations to right down just listen to the song
and figure it out)
3rd Piccolo part also arranged fot guitar
|--------------------------------------|
|---------10---------------------------|
|-7--9-10-----10-9---7--9-10---5--7-9--|
|--------------------------------------|
|--------------------------------------|
|--------------------------------------|
here are the riffs in order listen to the album to figure out how many times
each riff is played




Ваше мнение



Капча

Рекомендуем