PERFECT DAY
Paolo Santos

[email protected]

standard tuning: (EADGBE)

Intro:

E-5------------------------------------
B-5----3---3----3--3---1--1---0-1-3----
G-5------------------------------------
D-5----2---2----0--0---2--2------------play 2x
A-5---3---3----2--2---0--0----2-2-2----
E----------------------------3--3-3----

Verse:

E-5------------------------------------
B-5----3---3----3--3---1--1---0-1-3----
G-5------------------------------------
D-5----2---2----0--0---2--2------------
A-5---3---3----2--2---0--0----2-2-2----
E----------------------------3--3-3----

Chorus:

E-5------------------------------------
B-5----3---3----3--3---1--1---0-1-3----
G-5------------------------------------
D-5----2---2----0--0---2--2------------
A-5---3---3----2--2---0--0----2-2-2----
E----------------------------3--3-3----

=====()w&_17=====




Ваше мнение



Капча