ETO NA
Paolo Santos

[email protected]

Standard tuning: (EADGBE)

Intro:

E---------------- -------
B----3-3-----3-3- -------
G--------------0- ---2---
D------0-----2---play 2x--4----
A----2-----3----- -5-----
E--3------------- -------

Verse:

E--3--3--3-33-|-3--3-|----------------------
B--3--3--3-33-|-3--4-|---3-3-----3-3--------
G--0--0--0-0-|-0--5-|-------------0----2---
D--0--2--0-0-|-2--5-|-----0-----2-----4---- play 2x
A--2--3--2-22-|-3--3-|---2-----3------5-----
E--3-----3-31-|------|-3--------------------

Pre-chorus:

E-------- -----0-
B-3--3-0- --1--3-
G-0--2-0- --0--2-
D-2--4-2-play 3x --2--0-
A-3--2-2- --0----
E------0- -------

Chorus:

E--3--3--3-33-|---------|----0--
B--3--3--3-33-|--3--3-0-|-1--3--
G--0--0--0-0-|--0--2-0-|-0--2--
D--0--2--0-0-|--2--4-2-|-2--0--
A--2--3--2-22-|--3--2-2-|-0-----
E--3-----3-31-|-------0-|-------

Adlib:

E---------------- -------
B----3-3-----3-3- -------
G--------------0- ---2---
D------0-----2---play 2x --4----
A----2-----3----- -5-----
E--3------------- -------

Last chorus: (pre: E-Esus)

E----0---------|-0--4-2-|------------|-------
B-0--3--0--0-0-|-3--5-2-|-3--0--1--3-|-3--0--
G-2--2--2--2-2-|-2--4-2-|-2--1--2--0-|-2--1--
D-2--0--2--2-2-|-0--6-2-|-4--2--3--0-|-4--2--
A-0-----0--0---|----4-4-|-2--2--3--2-|-2--2--
E------------3-|------2-|----0--1--3-|----0--

Outro:

E----0------0--0--
B-0--3---0--3--0--
G-2--2---2--2--1--
D-2--0---2--0--2--
A-0------0-----2--
E--------------0--

=====()w&_17=====




Ваше мнение



Капча