t. See http://www.olga.net/faq/ for more information. #
Date: Sat, 22 Apr 2000 16:42:43 -0400
From: jordan L
Subject: s/santana/smooth.tab
Author/Artist: santana &rob thomas
Title: smooth
Album: supernatural
transcribed by jordan lockert [email protected]
this is for the lead guitar. there is a long and short
version to this song if your listening to the short
version, omit the bars labelled "skip"
intro
|-----------------------------
|-----------------------------
|-------12----12h14-----------
|-12h14----14-----------------
|-----------------------------
|-----------------------------
---------------------------------------
-------12-12b13r12----12-13------------
-13-14-------------14-------14---------
---------------------------------------
---------------------------------------
---------------------------------------
-------------------------------------
-------------------------------------
---------------------12--------------
-12b14-12b14-12b14-----12p10---------
-------------------------------------
-SKIP--------------------------------
-----------------------------|
-----------------------------|
-----------------------------|
-12p10p9---------------------|
---------12-11-12-/14-12-----|
-SKIP------------------------|
Man it's a hot one
...
...
............so cool
|----------------------------------------------------|
|-------------------12h13p12-15-13-12-------12-------|
|-------------------------------------14-13----13-14-|
|--------------12h14---------------------------------|
|---------12h15--------------------------------------|
|-12--15---------------------------------------------|
My mu-equita, ...
|---------------|
|-/17-/17-15-17-|
|---------------|
|---------------|
|---------------|
|---------------|
Youre ...
The ...
|------12-15p12--12------------------|
|-15b17--------15--15-13-15/17-15b17-|
|------------------------------------|
|------------------------------------|
|------------------------------------|
|------------------------------------|
And if ...
I would ..
I could ..
|-------------------------------|
|-------------------12-13p12----|
|----------------14----------14-|
|-12-12-12-14-15----------------|
|-------------------------------|
|-------------------------------|
Cause you're so smooth
|------12------12-15p12--12--------------------------------|
|-15b17---15b17--------15--15--15p13-15p13-15p13-15p13-----|
|-------------------------------------------------------14-|
|----------------------------------------------------------|
|----------------------------------------------------------|
|----------------------------------------------------------|
And it's ..
Well that's ..
You got ..
Gimme ..
Or ...
|-----------------------------------------------------------
|-----------------12-12b13r12----12--13--------------15b17--
|-/14-------13-14--------------14------14-------------------
|-----------------------------------------------------------
|-----------------------------------------------------------
|-----------------------------------------------------------
------------------------|
------15b17r15p13-------|
------------------14----|
------------------------|
------------------------|
------------------------|
I'll ...
If ...
|--------|
|--------|
|--------|
|-/14-12-|
|--------|
|--------|
In every ...
I hear ....
|------------------------------------------------------|
|-------------------12-13-12--13p12--------------------|
|-------------12-14-----------------14-14-13-14-13-14--|
|-12h14-12h14------------------------------------------|
|------------------------------------------------------|
|------------------------------------------------------|
Out from ..
You feel ..
Turning ...
|------12-15p12--12------------------|
|-15b17--------15--15-13-15/17-15b17-|
|------------------------------------|
|------------------------------------|
|------------------------------------|
|------------------------------------|
And if ..
I would ..
I could ..
|-------------------------------------|
|--------------12-13---15-13-15-13-15-|
|-----------14------------------------|
|-12-14-15----------------------------|
|-------------------------------------|
|-------------------------------------|
Cause you're so smooth
|------12------12-15p12--12----------------------------|
|-15b17---15b17--------15---15-15p13-15p13-15p13-15p13-|
|------------------------------------------------------|
|------------------------------------------------------|
|------------------------------------------------------|
|------------------------------------------------------|
|-----------------------------------------------------------
|-------------------------------12------------------12--13--
|----------14-----------------------------------14----------
|-----------------------------------------------------------
|-----------------------------------------------------------
|-----------------------------------------------------------
and its ...
-----------------------------------------------
----------------------15-----------------------
-----------------------------------------------
-----------------------------------------------
-----------------------------------------------
-----------------------------------------------
same emotion ....
---12h13p12------12--------------------------------------
-----------15p13----13-15-13-15-15-13--------------------
---------------------------------------------------------
---------------------------------------------------------
------------------------------------------10\------------
-------------------------------------------8\------------
kinda ...
--------------------------------------|
--------------------------------------|
--------------------------------------|
--------------------------------------|
--10-------12\------------------------|
---8-------10\------------------------|
make it ...

Solo!
------------------------------------------------------------
-----------------12b13r12--------------------------12-13-12-
-14-------13--14----------14-------16p14p13-----13----------
---------------------------------------------14-------------
------------------------------------------------------------
-SKIP-------------------------------------------------------
---------------------------------------------------------|
------------------12-12h13-12----13----------------------|
-14-------16-13---------------14-----14------------------|
------------------------------------------/14-/14-12-14--|
---------------------------------------------------------|
-SKIP----------------------------------------------------|
-15b17-15b17-15b17r15-12----12----19b20r19-17---12h15-------
-------------------------15---------------------------15-17-
------------------------------------------------------------
------------------------------------------------------------
------------------------------------------------------------
------------------------------------------------------------
------------------17-19-20-19-20-19-20-19-20-19-20-19-20-19-
-12-15h17p15----17------------------------------------------
------------------------------------------------------------
------------------------------------------------------------
------------------------------------------------------------
------------------------------------------------------------
-20-19-20b22--22-22-22----/17-/17---17-17-15---------
--------------------------------------------17-15h17-
-----------------------------------------------------
----------------------------------------************-
-----------------------------------------------------
-----------------------------------------------------
---------17-15----------------------------------------------
-15b17-17-----17-15b17r15--------15\-----5-5-5555-6666-7777-
-------------------------17p14h17---------------------------
-**********************************-------------------------
-(parts that have stars under them--)-----------------------
-(are played faster than they appear)-----------------------
--------------------------------|
-8888-9999-10101010-11111111-12-|
--------------------------------|
--------------------------------|
--------------------------------|
--------------------------------|
REPEAT CHORUS (AND IT'S JUST LIKE THE OCEAN...)
*NOTE* FROM HERE ON THE LYRICS JUST REPEAT OVER, SO YOU'LL
JUST HAVE TO TRY AND FOLLOW IT ALONG
------------------------------------------------------------
-----------------12-12b13r12----12--13--------15b17---------
-/14-------13-14--------------14------14----------------/14-
------------------------------------------------------------
------------------------------------------------------------
------------------------------------------------------------
----------------------------------------------------------|
-------12b13r12----12-13-17p13-12h13p12-------------------|
-13-14----------14---------------------14p12h14-----------|
------------------------------------------------14--------|
-------------------------*************************--------|
----------------------------------------------------------|
------------------------------------------------------------
-17-17-17-17-17-17----15------17-17-17-17-17-17----17-------
-17-17-17-17-17-17-16---------17-17-17-17-17-17-16----------
------------------------------------------------------------
------------------------------------------------------------
------------------------------------------------------------
-12------12-15p12-----12-----------------17-----17-----17-
----15b17--------13h15--15b17-------15b17--15b17--15b17---
----------------------------------------------------------
----------------------------------------------------------
----------------------------------------------------------
----------------------------------------------------------
------17----17----17----17--19-19-19-19b21r19--17-17-|
-15b17---17----17----17------------------------------|
-----------------------------------------------------|
-----------------------------------------------------|
-----------------------------------------------------|
-----------------------------------------------------|
-/17-/17-17-17-17--19-19-19b21-19b21--19p17-----
------------------------------------------------
------------------------------------------------
------------------------------------------------
------------------------------------------------
------------------------------------------------
-15-12h15p12--------12------------------------------------
------------13-15b17--13--13-15b17-15-13-15-13-15-13-15\--
------------------------14--------------------------------
-*********************************------------------------
----------------------------------------------------------
----------------------------------------------------------
------------------------------------------------------------
-13-----------------------12-13-12-15-12--------------------
---14-14---------------14-----------------14----------------
-------------14-12--14-------------------------15-14-12h14--
------------------------------------------------------------
------------------------------------------------------------
--------|----------------------------12-12-------20p19p17-
--------|-----------------------12h15---------17----------
--------|--------------12--12h14--------------------------
--------|------12h14h15--15-------------------------------
-----12-|-12h15-------------------------------------------
--------|-********************************----------------
-20p19p17-20p19p17-20p19p17-20p19p17--fade out---
-------------------------------------------------
-------------------------------------------------
-------------------------------------------------
-------------------------------------------------
-------------------------------------------------
send questions or comments to [email protected]




Ваше мнение



Капча