S1: I'm not to sure if the date released is really the date I have
written, but I think its correct. , Author/Artist: Santana w/ Everlast
Title: Put Your Lights On
Album: Santana
Transcriber: J.Factor
____________________________________________________________
Tuning: E A D G B E

Intro:
Acoustic Guitar
Repeat 2x
Am A C
--------------------------------------------
|---1-1---0-1-1-1-1----1-1-1---3-1-0-0----
|---2-2---2-2-2-2-0----0-0-0---0-0-0-0----
|---2-2---2-2-2-2-2----2-2-2---2-2-2-2----
------------3----3-3-3---3-3-3-3----
--------------------------------------------

G F E
------3-0--0-0-0--0-0-0-0-0--------------------
|--3----3-3-3-3-3--3-3-3--1-1-1-1-1--------------------
|--0----0-0-0-0-0--0-0-0--2-2-2-2-2--------------------
|--0----0-0-0-0-0--0-0-0--3-3-3-3-3--2----2-2-2----
|--2----2-2-2-2-2--2-2-2--3-3-3-3-3--2----2-2-2----
|--3----3-3-3-3-3--3-3-3----------------- 0----0-0-0----

Verse/Chorus:
Acoustic Guitar
Hey now .................... all ya sinner put your lights on..........
Am A C
--------------------------------------------------
|--1----1-1-1---0-0-0--1----1-1-1---3-1-0-1----
|--2----2-2-2---2-2-2--0----0-0-0---0-0-0-0----
|--2----2-2-2---2-2-2--2----2-2-2---2-2-2-2----
------------------3----3-3-3---3-3-3-3----
--------------------------------------------------

G F E
------3-0--0-0-0--0-0-0-0-0--------------------
|--3----3-3-3-3-3--3-3-3--1-1-1-1-1--------------------
|--0----0-0-0-0-0--0-0-0--2-2-2-2-2--------------------
|--0----0-0-0-0-0--0-0-0--3-3-3-3-3--2----2-2-2----
|--2----2-2-2-2-2--2-2-2--3-3-3-3-3--2----2-2-2----
|--3----3-3-3-3-3--3-3-3----------------- 0----0-0-0----

Interlude: (played along with main solo)
Electric Guitar
Heavy Distortion
G A F
E
--------------------------------------------------------------------------
--------------------------------------------------------------------------
--------------------------------------------------------------------------
|-5-5--x-x--x----7-7--x-x--x----3-3--x-x--x-x---2-2--x-2--x--x-x----
|-5-5--x-x--x----7-7--x-x--x----3-3--x-x--x-x---2-2--x-2--x--x-x----
|-3-3--x-x--x----5-5--x-x--x----1-1--x-x--x-x---0-0--x-0--x--x-x----

Verse/Chorus:
Acoustic Guitar
Hey now .................... all ya sinner put your lights on..........
Am A C
-------------------------------------------
|---1-1---0-1-1-1-1----1-1-1---3-1-0-1----
|---2-2---2-2-2-2-0----0-0-0---0-0-0-0----
|---2-2---2-2-2-2-2----2-2-2---2-2-2-2----
------------3----3-3-3---3-3-3-3----
--------------------------------------------

G F E
------3-0--0-0-0--0-0-0-0-0--------------------
|--3----3-3-3-3-3--3-3-3--1-1-1-1-1--------------------
|--0----0-0-0-0-0--0-0-0--2-2-2-2-2--------------------
|--0----0-0-0-0-0--0-0-0--3-3-3-3-3--2----2-2-2----
|--2----2-2-2-2-2--2-2-2--3-3-3-3-3--2----2-2-2----
|--3----3-3-3-3-3--3-3-3----------------- 0----0-0-0----

I haven't had a chance to tab out Santana's solos, but at least this is
the main part of the song.
____________________________________________________________
Lyrics:
Hey now all ya sinners put your lights on
Ya better put your lights on
Hey now all ya lover put your lights on
Ya better put your lights on
Hey now all ya killers put your lights on
Ya better put your lights on
Hey now all ya children keep your lights on
Better keep your lights on
Cause theres a moster livin under my bed
Whispering in my ear
Theres an angel
With her hand on my head
She say I got nothing to fear
Theres a darkness living deep in my soul
Still got a purpose to serve
So let your light shine deep into my hole
God don't let me lose my nerve
Don't let me lose my nerve.
Hey now Hey now
Woh oh Hey Now
Hey now Hey now
Hey now all ya sinners put your lights on
Ya better put your lights on
Hey now all ya children keep your lights on
Better keep your lights on
Cause theres a moster livin under my bed
Whispering in my ear
There an angel
With her hand on my head
She say I got nothing to fear
She said
La la ha hey la la
Ya gotta shine like a star
La la ha hey la la
Ya gotta shine like a star
And then you fade away.




Ваше мнение



Капча