t. See http://www.olga.net/faq/ for more information. #
Date: Tue, 4 Apr 2000 09:46:53 -0400
From: Paul
Subject: s/santana/jingo.tab
Artist: Santana
Song: Jingo
Tabbed by: Paul ([email protected])
~~ = hold note
9h11 = play 9th fret, then hammer on 11th fret
15r14 = bend 14th fret up to sound like the 15th fret, then play the note
while reverse bending
17p15 = play 17th fret, then pull off to 15th fret
This is the way the verse part of the song goes (of course,
the song IS an instrumental so I guess it shouldn't be
called a verse part... but you know what i mean... this is
the way it goes):
E----14--14~~-----15r14-------------------------------------
B-12---------------------12h14---15--10h12------------------
G-----------------------------------------------------------
D-----------------------------------------------------------
A-----------------------------------------------------------
E-----------------------------------------------------------
E----14--14~~-----15r14-------------------------------------
B-12---------------------12h14---15~~-----------------------
G-----------------------------------------------------------
D-----------------------------------------------------------
A-----------------------------------------------------------
E-----------------------------------------------------------
E------------------------------------------------------------
B-12--12-12--12-15--12--12-12--12-15--12--12-12--12-15--17p15
G------------------------------------------------------------
D------------------------------------------------------------
A------------------------------------------------------------
E------------------------------------------------------------
E------------------------------------------------------------
B-12--12-12--12-15--12--12-12--12-15--12--12-12--12-15--17p15
G------------------------------------------------------------
D------------------------------------------------------------
A------------------------------------------------------------
E------------------------------------------------------------
E------------------------------------------------------------
B---11-11~~-----12r11----------------------------------------
G-9-------------------9h11--12--7h9~~--7h9s0-----------------
D------------------------------------------------------------
A------------------------------------------------------------
E------------------------------------------------------------
That's pretty much the way it goes... Santana does some nifty
variations on the melody the second time through (which are
really hard for me to tab), but the basic melody stays the
same. If anybody has any questions, comments, complaints,
or corrections, please email me. KEEP ON STRUMMING:)




Ваше мнение



Капча