Artist:Santana (featuring Michelle Branch)
Song:Game of Love
Album:Shaman
Transcribed by AreizA: [email protected]
This is the intro for this song
-is all my own work-
h= hammer on
^= bend (full)
^r= released bend
p= pull off
/= shift slide
1. INTRO
|---------------------10-10-10-10-10-10h12---------------------
|----------10---10-12-----------------------10h12-10h12-10h12--
|---9/11-------------------------------------------------------
|--------------------------------------------------------------
|--------------------------------------------------------------
|--------------------------------------------------------------

|---------------------------------
|----------------10h12p10----10---
|-----11--9/11------------11------
|--12-----------------------------
|---------------------------------
|---------------------------------
|-------10-10-10-10-10-12-12^-12^-12^rp10-12p10-10------
|-10h12-------------------------------------------------
|-------------------------------------------------------
|-------------------------------------------------------
|-------------------------------------------------------
|-------------------------------------------------------
Bm A
Tell me
Bm
Just what you want
A
me to be
Bm A
One kiss
And ooh
Bm A
you're the only one for me
Bm A
So please tell me whyyyyy
D
You don't come around
E
No mooooore
Bm C#m
Cuz right now I'm cryyyyin
D
Outside the door
E
Of your candy store
Bm
Cuz it just takes a little bit of this
A
A little bit of that
Bm
Start it with a kiss
A
When we're up to bat
Bm
A little bit of lies
A
A little bit of pain
Bm
I'm tellin you my baby
A
It's all in the game of...
Bm
Lovin
A
Whatever you make it to be
Bm
Sunshine
A
Set on this cold lonely sea
Bm A
So please tell baby tryyyyy
D
And use me for what I'm
E
good for-or
Bm C#m
Ain't saying goodbyyyyyye
D
Knockin' down the door
E
Of your candy store
Bm
Cuz it just takes a little bit of this
A
A little bit of that
Bm
Start it with a kiss
A
When we're up to bat
Bm
A little bit of lies
A
A little bit of pain
Bm
I'm tellin you my baby
A
It's all in the game of...
Bm A
Love
Bm A
It's all in the game of looooove
Bm
You roll me
C#
Contol me
D
Console me
E
Please hold me
Bm
You guide me
C#
Divide me
D EEEEEEE
Into whaattttttt
---------------------------------------
2d version
--------------------------------------
Em D
Tell me
Em D
Just what you want me to be
Em D
One kiss
and ooh
Em D
you're the only one for me
Em D
So please tell me whyyyy
Em
You don't come around
D
No mooooore
Em D
Cuz right now i'm cryyyyin
Em
Outside the door
D
Of your candy store
Em
Cuz it just takes a little bit of this
D
A little bit of that
Em
Start it with a kiss
D
When we're up to bat
Em
A little bit of lies
D
A little bit of pain
Em
I'm tellin you my baby
D
It's all in the game of...
Em D
Lovin
Em D
Whatever you make it to be
Em D
Sunshine
Em D
Set on this cold lonely sea
Em D
So please baby tryyyyy
Em
And use me for what I'm
D
good for-or
Em D
Ain't saying goodbyyyyye
Em
Knockin' down the door
D
Of your candy store
Em
Cuz it just takes a little bit of this
D
A little bit of that
Em
Start it with a kiss
D
When we're up to bat
Em
A little bit of lies
D
A little bit of pain
Em
I'm tellin you my baby
D Em
It's all in the game of love...
D Em D
It's all in the game of looooove
Bm
You roll me
F#m
Control me
GMaj
Console me
AMaj
Please hold me
Bm
You guide me
F#m
Divide me
GMaj AMaj
Into whatttt
Em D
So please tell me whyyyy
Em
You don't come around
D
No moooooore
Em D
Cuz right now i'm cryyyyin
Em
Outside the door
D
Of your lovin store
Em
Cuz it just takes a little bit of this
D
A little bit of that
Em
Start it with a kiss
D
When we're up to bat
Em
A little bit of lies
D
A little bit of pain
Em
I'm tellin you my baby
D Em
It's all in the game of love...
--------------------------------------------------------------------------------------
------------------------------------------------------------------------------------------




Ваше мнение



Капча