Intro: Classical guitar
-------------|
-------------|
|------13h14p13----------|
|-14h15--------15p14-----|
-------------|
-------------|



-------------------------------------------------|
-------------------------------------------------|
|------13h14-13h14-13h14p13----------------------------------|
|-14h15---------------------14h15-14h15p14--12h14p12---------|
-----------------------------------------15------|
-------------------------------------------------|



Electric
-------------------------------------------------|
|-13-----------------------13-12-----------------------------|
-------------------------------------------------|
-14-15-----------------------12-14---------------|
-------------------------------------------------|
-------------------------------------------------|



---------------------------------------------------------------|
---------------------------------------------------------------|
|-14------------------------------14-13------------------------------------|
----12----------12-15--------15-14--12-----12-14-12-14---------|
-15----------14-------------------------15---------------------|
---------------------------------------------------------------|



-----------------------------------------------------------|
|-13-----------------------13-12---------------------------------------|
---------------------------------12------------------------|
-14-15------15----------------12----12-14-14-14------------|
-----------------------------------------------------------|
-----------------------------------------------------------|



---------------------------------------------------------------|
---------------------------------------------------------------|
|-14------------------------------14-13h14p13------------------------------|
----12----------12-15--------------15-14--12-----12-14-12-14---|
-15----------14-------------------------------15---------------|
---------------------------------------------------------------|



-------------------------------------------------------------|
-------------------------------------------------------------|
--------------12---------------------------------------------|
|----14----14-12--12--15--------14--------------12-14-12--12------12-----|
|-15----15--------------------------------12-15---------------14-----15--|
-------------------------------------------------------------|



----------------------------------------------------------------|
----------------------------------------------------------------|
--------------12------------------------------------------------|
|----14----14-12--14--15------14p12h14-----------12-14-12-------------------|
|-15----15---------------------------------12-15-----------14--11-----14-12-|
-------------------------------------------------------12-------|



---------------------------------------------------------|
---------------------------------------------------------|
---------------------------------12----------------------|
----------------12-----12-14--------15-14----------------|
|-11-12-14--12-14-15--14-15-----15-----------------------------------|
---------------------------------------------------------|



-------------------------------------------------|
|-13-----------------------13-12-----------------------------|
-------------------------------------------------|
-14-15-----------------------12-14-14------------|
-------------------------------------------------|
-------------------------------------------------|



---------------------------------------------------------------|
---------------------------------------------------------------|
|-14------------------------------14-13------------------------------------|
----12----------12-15--------15-14--12-----12-14-12-14---------|
-15----------14-------------------------15---------------------|
---------------------------------------------------------------|



-----------------------------------------------------------|
|-13-----------------------13-12---------------------------------------|
---------------------------------12------------------------|
-14-15------------------------12----12-14-14-14------------|
-----------------------------------------------------------|
-----------------------------------------------------------|



------------------------------------------------------------|
------------------------------------------------------------|
|-14------------------------------14-13---------------------------------|
----12----------12-15--------15-12h14--12-----12-14-12-14---|
-15----------14----------------------------15---------------|
------------------------------------------------------------|



-------------------------------------------------------------|
-------------------------------------------------------------|
--------------12---------------------------------------------|
|----14----14-12--12--15--------14--------------12-14-12-----------------|
|-15----15--------------------------------12-15-----------14------14-12--|
--------------------------------------------------15---------|



----------------------------------------------------------------|
----------------------------------------------------------------|
--------------12------------------------------------------------|
|----14----14-12--14--15------14p12h14-----------12-14-12-------------------|
|-15----15---------------------------------12-15-----------14--11-----14-12-|
-------------------------------------------------------12-------|



----------------------------------------------------
----------------------------------------------------
-----------------12----------14---------------------
|-------12-14-12-------12-14----15-14-15----15-14h15p14p12h14---
|-12-15-------------15------------------------------------------
----------------------------------------------------


-------------------------------|
-------------------------------|
-------------------------------|
-------12-14-12----------------|
-12-15-----------14--11-----14-|
-------------------------12----|



--------------------------------------------------------|
-----------------------------------------------------12-|
---------------------------------12--------------14-----|
----------------12-----12-14--------15-14-----14--------|
|-11-12-14--12-14-15--14-15-----15----------------------------------|
--------------------------------------------------------|



-------------------------------------------------|
|-13-----------------------13-12-----------------------------|
-------------------------------------------------|
-14-15-----------------------12-14-14------------|
-------------------------------------------------|
-------------------------------------------------|



----------------------------------------------------------------|
----------------------------------------------------------------|
|-14------------------------------14-13h14p13-------------------------------|
----12----------12-15--------------15-12h14--12-----12-14-12-14-|
-15----------14----------------------------------15-------------|
----------------------------------------------------------------|


faster part
--12--13--12--13--15--13--12--13--12--13--12--13------12------12-
|-12--13--15--------------------------------------------------15------15-----
-----------------------------------------------------------------
-----------------------------------------------------------------
-----------------------------------------------------------------
-----------------------------------------------------------------



---------------------------------------------------------------------------
-13--15--13p12--13--12--13--15--13--12--13--13p12--------------------------
---------------------------------------------------14--12------------------
-----------------------------------------------------------12--------------
---------------------------------------------------------------15--12--15--
---------------------------------------------------------------------------



-------------------------------------------|
-------------------------------------------|
--------12--12--12h14--14--12h14p12--------|
-12h14-------------------------------------|
-------------------------------------------|
-------------------------------------------|



|-15^--15---15------13---12-----13---12-------13--12----------12-------------
------------------------------15----------15--13------15--13--12-
-----------------------------------------------------------------
-----------------------------------------------------------------
-----------------------------------------------------------------
-----------------------------------------------------------------



--------------------------------------------------------12----------|
-15--13--12--15--13--12--13p12--------------12--13--15--------------|
--------------------------------14--13--14--------------------------|
--------------------------------------------------------------------|
--------------------------------------------------------------------|
--------------------------------------------------------------------|



|-12--17--12--17--12--17--12--19--12--19--12--19--12--20------
--------------------------------------------------
--------------------------------------------------
|-if you cant stretch your fingers far enough-----------------
|-play the 12th fret E note on the B string-------------------
--------------------------------------------------



-20^---20^--20^--20^--20^-r--17------17h20p17------17-----------------------
---------------------------------20------------20------20--17---------------
---------------------------------------------------------------19^---19--17-
----------------------------------------------------------------------------
----------------------------------------------------------------------------
----------------------------------------------------------------------------



-----------------17----------------------------------------------------
-------------17------20--17--------------------------------------------
-----17--19^-----------------19^-19--17------17--19--19--17---17-17----
-19--------------------------------------19----------------------------
-----------------------------------------------------------------------
-----------------------------------------------------------------------




----------------------------------------|
----------------------------------------|
----------------------------------------|
-19--17-------------------------17------|
---------17--------------17h19----------|
-------------20--17--20-----------------|



|-15^--15--15-----13--12------13---12--12----------------12--13--12----------
---------------------------------15--13--15--------------15--13--
-----------------------------------------------------------------
-----------------------------------------------------------------
-----------------------------------------------------------------
-----------------------------------------------------------------



-12-------------------------------------------------------------------------
-----15--13--12--15--13--12--13--12--13--12--13--12--13---13---12--13--15---
----------------------------------------------------------------------------
----------------------------------------------------------------------------
----------------------------------------------------------------------------
----------------------------------------------------------------------------



---------12--------12--13----12--13--12--
-13--15--------15------------------------
-----------------------------------------
-----------------------------------------
-----------------------------------------
-----------------------------------------



--------------------------------------------------------|
|-13--13--13----------------------13-12-----------------------------|
--------------------------------------------------------|
------14-15-----------------------12-14-----------------|
--------------------------------------------------------|
--------------------------------------------------------|



------------------------------------------------------------
------------------------------------------------------------
|-14------------------------------14-13---------------------------------
----12----------12-15--------15-14--12-----12-14-----12-14--
-15----------14-------------------------15--------15--------
------------------------------------------------------------



-----------------------------|
-----------------------------|
-----------------------------|
----12-14-----12-14----12----|
-15--------15-------15-------|
-----------------------------|



------------------------------------------------------------
------------------------------------------------------------
--------12--------------------------------------------------
|-14--------12--14------15--14--12------12--14-------12--14--14--15--15-
|-------15--------------------------15-----------15---------------------
------------------------------------------------------------



---------------------------------12--15--13--12--13--12--13------12---------
-----------------12--12--13--15------------------------------15------15--13-
-12--12--14--14-------------------------------------------------------------
----------------------------------------------------------------------------
----------------------------------------------------------------------------
----------------------------------------------------------------------------



-------------12------|
-12--13--15----------|
---------------------|
---------------------|
---------------------|
---------------------|



|-12--17--17---17---19---20--19h20-------20^--20^---20^---20^----20^----20^--
-----------------------------------------------------------------
-----------------------------------------------------------------
-----------------------------------------------------------------
-----------------------------------------------------------------
-----------------------------------------------------------------



-20^----20^--20^-r---20--17---------------------------------------------
-----------------------------20--17-----------------------------17--17--
-------------------------------------19^---19--17------17--19^----------
---------------------------------------------------19-------------------
------------------------------------------------------------------------
------------------------------------------------------------------------



--------------------------------------------------------|
----17-17-17----17-17-17----17-17-17----17-17-17b*------|
-19^---------19^---------19^---------19^----------------|
--------------------------------------------------------|
--------------------------------------------------------|
--------------------------------------------------------|
* bend three semitones (to 20)


--------------15--13--12--13--13p12------12--------------12------
|-15--13--15--13--15--13-------------------------15------15--13--15------15--
-----------------------------------------------------------------
-----------------------------------------------------------------
-----------------------------------------------------------------
-----------------------------------------------------------------



--------------------|
-13--12h13p12-------|
--------------------|
--------------------|
--------------------|
--------------------|



-------------------------------------------------------------|
|--15--13--12--13--12----------------------------------------------------|
-----------14--12------------------------12--12--12-12--12---|
-------------------12--------------12h14---------------------|
-----------------------15--12--15----------------------------|
-------------------------------------------------------------|


|-15h17--15--15-----------------13--12--12---------------------12----------
------18--17---------------------15--15----13--15------15--13--
---------------------------------------------------------------
---------------------------------------------------------------
---------------------------------------------------------------
---------------------------------------------------------------



-----12--15--13--12--------------12-------------------------------------------
-15------------------15--13--15------15--13--12--13--12--13----12---12--------
-------------------------------------------------------------------------14---
------------------------------------------------------------------------------
------------------------------------------------------------------------------
------------------------------------------------------------------------------



------------------------------------------------------15-------12--12--12--12-
---------------12--13----------13h15-------15-----15------15------------------
--14-------14-----------------------------------------------------------------
-------14---------------------------------------------------------------------
------------------------------------------------------------------------------
------------------------------------------------------------------------------



|-17--12------12--------------------------------
|---------15------15----20--15------15----------
--------------------17------17------
------------------------------------
------------------------------------
------------------------------------
faded out




Ваше мнение



Капча