intro

E-------------------------------------------------------------------------------
B---------------------------------------10-------------------------10-----------
G--10~~-7-7/97~~-10h12p10~~-7-7/97~~------12-10p9~--12-10-97~-------12-109--
.....
E----------------------10--------10----10---------------------------------------
B-------------------10--------------13----13-10-13^(15)^13p10---13^(15)~~------
G--12-10-9-------10------------------------------------------------------------
D-------------12------------------------------
D----------12---------------------------------
E-------------------------------------------
.....
E-10-------------------------------12-13-12h13p12------------------------------
B----13-10-------------------10-13----------------13^(15)^13p10----13^(15)----
G----------12^(14)^12p109~~--------------------------------------------------
..... rake
E--10----------------------------------------12-13-13/15~~-15^(17)^15p13------
B-----13p10-------------------------------13------------------------------15--
G-----------12^(14)^12p10h12~~---------14-------------------------------------
D-----------------------------------14----------------------------------------
E-13~~-19^(20)~~--10-----------------------------------------------------------
B-------------------------------------------------------------------------------
G---------------------12^(14)^12p10----10h12------------------------------------
D-----------------------------------12----------10h12p10----10------------------
A--------------------------------------------12----------12----12p108-10-8-----
E-----------------------------------------------------------------------------
E-------10---------------------------------------------------
B-------10---------------------------------------------------
G-------10---------------------------------------------------
D-------12-----------------------------------------------------
A-------12----------------------------------------------------
E--10-8/10--------------------------------------------------------
(organ solo)
Dm
Got a black magic woman
Am
Got a black magic woman
Dm
Yes i've got a black magic woman
Gm
Got me so blind i can't see
Dm
That she's a black magic woman
Am Dm
Got the devil on me
Bass lines
Dm Am Dm Gm
G| ------5-5-7-5-- | ---------------- | ------- | ---------------- |
D|.----7----------.|.-------5-5-7-5--.|.-------.|.--------3-3-5-3-.| then
A|.-5-------------.|.-----7----------.|.-------.|.------5---------.| Dm Am Dm
E| --------------- | --5------------- | ------- | ---3------------ |
Solo
E-------10--------------13h12-10-------------------------------------12~~p13h12-
B---13^----13^(15)^h10-----------(15)^13h10---------------------10p13-----------
G-------------------------------------------(14)^-12h109--9/10-----------------
E---------13^(15)-15^(17)^15h13p15^(17)-13~~--19^(20)~~--12p13h12---12p13h12--
B-13^(15)---------------------------------------------------------13-----------
G------------------------------------------------------------------------------
E---------10-------------------------------------------------------------------
B-13^(15)----13p10-----------------10--10-13p10--------------13^(15)-15^(17)---
G-----------------12^(14)^12p10----10-----------(14)^12p10---------------------
D-------------------------------12--------------------------------------------
slow bend
E-----------------------------10------------------------------------------------
B-13^(15)~~~---------------13^---13p10-------------------------13^(15)-13^(15)~~
G-----------(14)^12^(14)~~-------------12^(14)^12p109~----14-------------------
D--------------------------------------------------------14---------------------
E------------10-------------------10-12-13^(15)~~-15^(17)-19^(20)-20^(22)----
B-(15)^13p10-13^(15)------------11--------------------------------------------
G--------------------10-10~~--12----------------------------------------------
E----------10-----10------10-13p10h13p10--------------------------------------
B----10h13---10h13---10h13--------------13p10h13p10---------------------------
G-12^-----------------------------------------------12p10h12p10---------------
D---------------------------------------------------------------12p10-12------
E----------------------------------------------------------
B----------------------------------------------------------
G---------------------9--10~~------------------------------
D------------10--12----------------------------------------
A-10-11-12-------------------------------------------------
E----------------------------------------------------------
got your spell on me babe

h = hammer on p = pull off
b = bend r = release bend
= slide ~ = let ring
Intro:
e---------------------------------------------------------------------|
B|--8p6~~~~-----------6h8p6~~~~-8----------10--8--65~~--8--6--5/3~~--10--8--65~~|
G|----------7/97~~~~-------------7/97~~-----------------------------------------|
D---------------------------------------------------------------------|
A---------------------------------------------------------------------|
E---------------------------------------------------------------------|
e-------10---------------------------|----------10--------|
B|--8--6-5--------10--------|--13b15-13-13b15-10-13b15~~~~~--|--13b15~~----13-10--|
G---10----------------------------------------|
D-12------------------------------------------|
A|----------12--------------|-(0:41)----------------------------------|
E|--------10----------------------------------------------|
e------|-------12-13-12h13p12---------|--------10----------------------|
B------|-10-13----------------13b15~~-|-13b15~~---13p10----------------|
G|-12b14r12p109~~--------------------------12b14r12p10h12-|
D----------------------------------------------|
A----------------------------------------------|
E----------------------------------------------|
e|--------12-13-13/15~~-15b17r15p13------13~~-19
b20~~10----------------------|
B|------13----------------------------15------------------------------------------|
G|----14-----------------------------------------------------12b14r12p10----10h12-|
D|--14-------------------------------------------------------------------12-------|
A|--(rake)------------------------------------------------------------------------|
E---------------------------------------------------------------------|
e--------------------------10--|
B--------------------------10--|
G--------------------------10--|
D|----10h12p10----10-------------------12--|
A|-12----------12----12p108-10-8------12--|
E---------------------10-8/10--|
Теперь басы
Intro, bass enters at 00:06
|--------|--------|----------|----------|---------|
|--------|--------|----------|----------|---------|
|--------|5-------|-------12|5---------|5-----12|
|-------5|--------|----------|---------5|---------|
|--------|----------|--------|----------|--------|
|--------|----------|--------|----------|--------|
|5-------|5------12|5-------|5------12|5-------|
|-------5|----------|-------5|----------|-------5|
(00:29)
|----------|--------|--------|---------|--------|
|----------|--------|----55--|----55-5/|--------|
|5------12|5------5|---5---5|---5-----|5---55--|
|----------|--------|3-------|3--------|---5---5|
(00:43)
|--------|--------|---------|--------|--------|
|--------|----55--|----55-5/|--------|--------|
|5---55-5|---5---5|---5-----|5-------|5-------|
|---5----|3-------|3--------|--------|--------|

End of Intro
|----5575|----5575|--------|--------|----5575|
|---7----|---7----|----5575|----5575|---7----|
|5-------|5-------|---7----|---7----|5-------|
|--------|--------|5-------|5-------|--------|
|----5575|--------|--------|----5575|--------|
|---7----|----3353|----3353|---7----|----5575|
|5-------|---5----|---5----|5-------|---7----|
|--------|3-------|3-------|--------|5-------|
|----5575|----5575|--------|--------|--------|
|---7----|---7----|--------|--------|--------|
|5-------|5-------|5-------|--------|--------|
|--------|--------|--------|--------|--------|
That's pretty much the bassline for the whole song, except for
some variations.
This is a variation used at the beginning of the song. Around
1:03
|----5575|7---55--|--------|
|---7----|---7--75|--------|
|5-------|--------|5-------|
|--------|--------|--------|
This is one variation from when it goes from D to G.
There are more than this, but I have only figured this one
out. It is used again at 3:06
|----5575|----55--|----------|--------|
|---7----|---7--76|5-----3353|----3353|
|5-------|5-------|---3h5----|---5----|
|--------|--------|----------|3-------|
Variation from A to D plus another variation
from D to G around 1:55. The D to G part is
used again at 2:43
|--------|--------|----5575|-----5--|----------|
|----5575|----55--|---7----|---7---7|5-----3353|
|---7----|---7--76|5-------|5-------|---3h5----|
|5-------|5-------|--------|--------|----------|
|--------|--------|
|----3353|--------|
|---5----|5-------|
|3-------|--------|
Gypsy Queen.
|7-5-----------------------|
|----7-5-------------------|
|--------8-7-5---|5---5---5---5---|5---5---5-------|
---8-|--5---5---5---5-|--5---5---------|
|--------|--------|--------|
|--------|--------|--------|
|--------|5-035-07|5-------|
|--------|--------|--------|
|this section repeats for a while |
Until
|--------|--------|--------|
|--------|--------|--------|
|3-2-----|--------|--------|
|--------|--------|--------|




Ваше мнение



Капча