Date: Thu, 28 Nov 1996 14:36:05 -0600 (CST)
From: Avelino Andreti B
Subject: TAB: El angel by Santa Sabina
TAB: El Angel by Santa Sabina (mex.)
GTML: issue #3
Transcribed an tabbed by: Avelino Andretti Benavides.
Comments, subscriptions (GTML), contributions, requests:
mailto:[email protected]
http://www-lce.cem.itesm.mx/alumnos/al448482/tab/gtml/index.html
This band is not absolutely Gothic but their lyrics talk about death,
vampires and other obscure things.
NOTE: !one mensure---!
Riff 1 q q q q q q q q q q q q q q
-------------------------------|--------------|--------------|----------
-------------------------------|--------------|--------------|----------
4:-----------------------------|--------------|--------------|----------
4:-----------------5--5--5--3--|--3--3--3--2--|--------------|--3--3----
-------------------3--3--3--3--|--1--1--1--0--|--5--5--5--5--|--1--1----
-------------------------------|--------------|--3--3--3--0--|----------
Heavy palm mute C5 F5 Bb5 A5 G5 D/E Bb5
q q Riff 2 q q q q q q q q q q q q
-------||----------------------------|--------------|--------------|----
-------||----------------------------|--------------|--------------|----
------*||----------------------------|--------------|--------------|----
3--3--*||---------------------10-----|--------8-----|--------5-----|----
1--0---||-----------------10------x--|-----8-----x--|-----5-----x--|----
-------||--------------8----------x--|--6--------x--|--3--------x--|----
Fmaj-5 Heavy Dist harder ^ ^ ^
q q q q Riff 3 q H e E Q e e H
-------------||--------------------------|-----------|-----------|------
-------------||--------------------4--4--|--3--3--3--|-----------|------
------------*||--------------------5--5--|--3--3--3--|--3--3--3--|------
------8-----*||--------------------5--5--|--3--3--3--|--5--5--5--|------
---8-----x---||--------------------3--3--|--1--1--1--|--5--5--5--|------
6--------x---||--------------------------|-----------|--3--3--3--|------
^ Clean Chorus Cm Bb Gm
e q e q q Fill A h q q w Riff 4 q H
----------------||-----------r--r-----|-----||-----------------|--------
1--3--1--3--1---||-----------e--e-----|-----||-----------------|--------
1--3--1--3--1--*||-----------s--s-----|-----||-----------------|--------
3--3--3--3--3--*||-----------t--t-----|--3--||-----------5--5--|--------
1--1--1--1--1---||-----------------3--|--1--||-----------3--3--|--------
----------------||--------------------|-----||-----------------|--------
Bb7sus2 Dist. Bb5 Dist. C5
q H q H e q e q q Bridge h Q e
------|--------|------------------||-----------r-------||---------------
------|--------|------------------||-----------e-------||---------------
------|--------|-----------------*||-----------s-------||*--------------
3--3--|--------|--2--3--2--3--2--*||-----------t--5\3--||*--------------
1--1--|--5--5--|--0--1--0--1--0---||------------\-3\3--||---------------
------|--3--3--|------------------||-------------\3\1--||---------------
Bb5 G5 A5 Bb5 A5 Bb5 A5 Heavy Dist.
q^ q^ q^ q^ q^ q^ Q e Fill B e H e Outro Q e e
------------------------||-----------r-----r--||------------------------
------------------------||-----------e-----e--||------------------------
-----------------------*||-----------s-----s--||--------------5--5------
5--5--5--5--5--5--5\3--*||-----------t--5--t--||--------------5--5------
3--3--3--3--3--3--3\3---||--------------3-----||-----------3--3--3------
3--3--3--3--3--3--3\1---||--------------------||------------------------
Nat. Harm.--------------^ C5 C5
e q Q e e e q Q e e e q q s e E s e Q
------|-----------------|-----------------|-----------------------------
------|-----------------|-----------------|-----------------------------
5--5--|-----3--3--3--3--|-----------------|-----3--3-----3--3--3--------
5--5--|-----3--3--3--3--|-----5--5--5--5--|-----3--3-----3--3--3--------
3--3--|--1--1--1--1--1--|-----5--5--5--5--|--1--1--1--1--1--1--1--------
------|-----------------|--3--3--3--3--3--|-----------------------------
Bb5Bb5 G5 Bb5 Bb5
-||---------------------------------------------------------------------
-||---------------------------------------------------------------------
*||---------------------------------------------------------------------
*||---------------------------------------------------------------------
-||---------------------------------------------------------------------
-||---------------------------------------------------------------------
Secuence:Riff1x6-riff2x2-riff1x6-riff2x1-riff3x7[2nd time fill A]-
riff1x2[second mensure fill B]-riff1x4+
[first 2 mensures of riiff1]-Bridgex6-riff4x6-(No chord for 2 mesures)-
riff1x4-riff4x2-riff4x4-outrox4.
Lyrics and riffs:
Riff 1x2+Riff1x4
Lluvia sobre la ciudad,moja tristes, corazones, tienen prisa
riff2x1
por llegar, al centro de su soledad, yo sonrio, los miro, correr.
riff2x1-riff1x6
Una voz dentro de mi, es aliada de la lluvia, cuando yo,
riff2x1
escuche mas, gotas golpear en el cristal, es risa, caera, en mi.
riff3x1-riff3x4,FillA
Unete dentro de mi, que no cree en la muerte ni el final,
su locura , los puede salvar. Unete dentro de mi, en el otro lado
de mi mente, sed de aire, no puede salvar.
riff3x2-riff1x2,FillB-riff1x4,riff1(first 2 mens.)
Tuve miedo de morir, de perderme, en la lluvia
, y su voz ilumino, el otro lado del jardin,
Bridgex6
esa lluvia, no conoce fin. Ya no temo de su rostro ,
riff4x6(NC)
en el borde de la nada. Unete dentro de mi, que no duermo nunca no
soy yo, su locura lo puede salvar. Unete dentro de mi, en el otro
lado de mi muerte, sed de aire no puede salvar.
Riff 3x2-riff1x4-riff4x4
Unete dentro de mi, en el fantasma vivo de mi voz.
Unete dentro de mi,se moja en la lluvia de mi voz.
Unete dentro de mi, por guardar el eco de mi voz. Unete dentro de mi,
-outrox4
que no cree en la fuerte de mi voz.
-------------------------------------FIN--------------------------------
Alfonso Figueroa A
Bajo, Coros
Rita Guerrero
Voz, Pandero
Patricio Iglesias
Bateria
Pablo Valero
Guitarra
Juan Sebastian Lach
Teclados

This is the Hugest TAB i ever made, uff!!
I hope you like it.
SOON: GTML Home page.
========================================================================
== TABLATURE EXPLANATION ==
========================================================================
---------- ---------- ----t---
----5h8--- Hammeron ----(8)--- Ghost ----6--- Tap
---------- ---------- Note --------
----5p8--- Pulloff ---------- --------
---------- ---------- -----p--
----5/8--- Slide Up -----x---- Dead -----7-- Pop
---------- ---------- Note --s-----
----5\8--- Slide Down ---------- --5----- Slap
---------- ||------|| Repeat --------
----5~~~-- Vibrato ||*----*|| ---5^--- Bend
---------- ||*----*|| --------
---------- ||------|| --------
---------- ---------- --------
-4:------- Time ---------- --------
-4:------- Signature ---------- --------
---------- ---------- --------
Rhythm:
w = whole note W = dotted whole
h = half note H = dotted half
q = quarter note Q = dotted quarter
e = eighth note E = dotted eighth
s = sixteenth note S = dotted sixteenth
t = 32nd note T = dotted 32nd
x = 64th note X = dotted 64th
^ = triplet




Другие песни исполнителя

No Me Alcanza El Tiempo


Ваше мнение



Капча