Song: To our Martyrs
Album: Ceremony of Opposites
Band: SAMAEL
Tabbed by: Martijn Wietsma (Darcanium)

Intro:
part 1

|----------------------------|-----------------------------|
|----------------------------|-----------------------------|
|----------------------------|-----------------------------|
|----------------------------|-----------------------------|
|-------7-8-10-8-7~----------|--------7-8-10-8-7-5~--------|
|--0-0-----------------------|--0-0------------------------|
pm pm 4x

|----------------------------|-----------------------------|
|----------------------------|-----------------------------|
|----------------------------|-----------------------------|
|----------------------------|-----------------------------|
|-------5-6-8-6-5~-----------|-------5-6-8-6-5-3~----------|
|--0-0-----------------------|--0-0------------------------|
pm pm 2x

part 2

|----------------------------------------------------------|
|----------------------------------------------------------|
|----------------------------------------------------------|
|----------------------------------------------------------|
|----------------------------------------------------------|
|-2-2-2-2-2-2---3-3-3-3-3-3---0-2-2-2-2-2-2-2---3-3-3-3-3-3|

|----------------------------------------------------------|
|----------------------------------------------------------|
|----------------------------------------------------------|
|----------------------------------------------------------|
|----------------------------------------------------------|
|-2-2-2---2-2-2---3-3-3---3-3-3-0-2-2-2---2-2-2------------|
pm---| pm---| pm-----|

part 3

|----------------------------|-----------------------------|
|----------------------------|-----------------------------|
|----------------------------|-----------------------------|
|-4-4-4-4-4/5---4-4-4-4-4/5--|----------3p2p---------------|
|-2-2-2-2-2/3---2-2-2-2-2/3--|-------2--------2---0--------|
|--------------------------0-|--0-0------------------------|
3x pm 4x

part 4

|----------------------------|
|----------------------------|
|----------------------------|
|-4-4-4---5---4-4-4----------|
|-2-2-2---3---2-2-2----------|
|-----------0-------2-2-2-2-2| 4x
pm-------| pm

|----------------------------|
|----------------------------|
|----------------------------|
|-----------3p2p-------------|
|-------2----------2---0-----|
|--0-0-----------------------| 4x
part 5

|----------------------------|-----------------------------|
|----------------------------|-----------------------------|
|----------------------------|-----------------------------|
|--------3-------------------|--------3---------3-2--------|
|-----2----2-------2---------|-----2-----2-----------------|
|--0------------0------------|--0--------------------------|
pm pm--| pm 2x

part 6

|----------------------------|-----------------------------|
|----------------------------|-----------------------------|
|----------------------------|-----------------------------|
|--5-4p----------------------|------------3-2--------------|
|-------5-0p-----------------|----2-3-2--------3-2---------|
|---------------0------------|-0---------------------------|
4x pm

|----------------------------|-----------------------------|
|----------------------------|-----------------------------|
|----------------------------|----------------------------9|
|-----------3-2--------------|-----------------------------|
|----2-3-2-------------------|-2-3-2-0-------2-3-2-0-------|
|--0-------------------------|----------0-0----------0-0-1-|
pm 2x pm-| pm-|

part 7

|----------------------------|-----------------------------|
|----------------------------|-----------------------------|
|----------------------------|-----------------------------|
|-4-4-4-4-4-5/6--------------|-4-4-4-4-4-4-3-3-3-3-3-3/2-2-|
|-2-2-2-2-2-3/4--------------|-2-2-2-2-2-2-1-1-1-1-1-1/2-2-|
|----------------------------|------------------------/0-0-|
2x

|----------------------------|
|----------------------------|
|----------------------------|
|-2-2-2-2-4/5---4/5----------|
|-2-2-2-2-2/3---2/3----------|
|-0-0-0-0--------------------| 3x

Comments, corrections, please email to: [email protected]





Ваше мнение



Капча