Samael
The Ones Who Came Before
Tabbed by Chris Lafser.
I had a hard time reading Chris's writing so this might not be entirely correct.
Tune all strings down 1 whole step.
1st Time 2nd Time
D---||--------|-----------||--------||---------------------------|----
A---||--------|-----------||--------||---------------------------|----
F---||*-------|----------*||--------||*--------------------------|----
C---||*--9---|--4--5----*||--------||*--------------------------|----
G---||---7----|--2--3--x-||--------||---------------------------|----
D---||---0----|-----------||/---10--||---0--0--0--0-----1--1--1--|----

NH--
D------------------|-----------------------|---------------||---------
A------------------|-----------------------|---------------||---------
F------------------|-----------------------|--------------*||---------
C------------------|-----------------------|--------------*||---------
G------------------|-----------------------|-----------3---||---------
D---1--1--1--3--3--|--0--0--0--0--1--1--1--|--1--1--1--1---||---------


D---||------------------------|-----------------------|---------------
A---||------------------------|-----------------------|---------------
F---||*-----------------------|-----------------------|---------------
C---||*-----------------------|-----------------------|---------------
G---||------------------------|-----------------------|---------------
D---||---0--0--0--0--1--1--1--|--1--1--3--0--0--0--0--|---------------

1st Time NH--
D------------------------|------------------||------------------------
A------------------------|------------------||------------------------
F------------------------|-----------------*||------------------------
C------------------------|-----------------*||------------------------
G------------------------|------------------||------------------------
D---0--0--0--0--1--1--1--|--1--1--1--3--3---||------------------------

2nd Time
D---------------------------------------------------------------------
A---------------------------------------------------------------------
F---------------------------------------------------------------------
C---3--3--3--3--3--3--3--3--4--4--4--4--4--4--4--4--------------------
G---1--1--1--1--1--1--1--1--2--2--2--2--2--2--2--2--------------------
D---------------------------------------------------------------------

NH--------------------------
D---||------------------------------|---------------------------------
A---||------------------------------|---------------------------------
F---||*-----------------------------|---------------------------------
C---||*-----------------------------|---------------------------------
G---||------------------------------|---------------------------------
D---||---7--7--7--7--7--7--7--7--7--|---------------------------------

1st Time
D----------------------------------||---------------------------------
A----------------------------------||---------------------------------
F---------------------------------*||---------------------------------
C---------------------------------*||---------------------------------
G---------------------------5--2---||---------------------------------
D---7--7--7--7--0--0--0--0--3--0---||---------------------------------

2nd Time
D---------------------------------------------|-----------------------
A---------------------------------------------|-----------------------
F---------------------------------------------|-----------------------
C---------------------------------------------|-----------------------
G---------------------------------------------|-----------------------
D---7--7--7--7--0--0--3--1--0--0--3--1--0--0--|-----------------------

A NH-------------------------------------------------
D---||------------------------------------------------------|---------
A---||------------------------------------------------------|---------
F---||*-----------------------------------------------------|---------
C---||*-----------------------------------------------------|---------
G---||------------------------------------------------------|---------
D---||------3--3--3--3--3--3--3--3--3--3--3--3--3--3--3--3--|---------


D---------------------------|-----------------------------------------
A---------------------------|-----------------------------------------
F---------------------------|-----------------------------------------
C---------------------------|-----------------------------------------
G---------------------5--2--|-----------------------------------------
D---0--0--0--0--0--0--3--0--|-----------------------------------------

NH-------------------------------------
D---------------------------------------|-----------------------------
A---------------------------------------|-----------------------------
F---------------------------------------|-----------------------------
C---------------------------------------|-----------------------------
G---------------------------------------|-----------------------------
D---3--3--3--3--3--3--3--3--3--3--3--3--|-----------------------------


D-------------------------------||------------------------------------
A-------------------------------||------------------------------------
F------------------------------*||------------------------------------
C------------------------------*||------------------------------------
G-------------------------------||------------------------------------
D---0--3--1--0--0--3--1--0--0---||------------------------------------


D---||-------------------------------------------------|--------------
A---||-------------------------------------------------|--------------
F---||*------------------------------------------------|--------------
C---||*------------------------------------------------|--------------
G---||---------------2h3p2h3p2--------------1h2p1h2p1--|--------------
D---||---0--0--0--0-------------0--0--0--0-------------|--------------


D-------------------------------------------||------------------------
A-------------------------------------------||------------------------
F------------------------------------------*||------------------------
C------------------------------------------*||------------------------
G---------------2h3p2h3--------------5--3---||------------------------
D---0--0--0--0-----------0--0--0--0--3--1---||------------------------


D---||------------------------------------------------|---------------
A---||------------------------------------------------|---------------
F---||*-----------------------------------------------|---------------
C---||*-----------------------------------------------|---------------
G---||---2--2--2-----2--2--2-----2--2--2-----2--2--2--|---------------
D---||---0--0--0-----0--0--0-----0--0--0-----0--0--0--|---------------

1st Time
D-------------------------------------------||------------------------
A-------------------------------------------||------------------------
F------------------------------------------*||------------------------
C------------------------------------------*||------------------------
G---2--2--2-----2--2--2-----2--2--2--5--3---||------------------------
D---0--0--0-----0--0--0-----0--0--0--3--1---||------------------------

2nd Time A
D---------------------------------------------------||----------||----
A---------------------------------------------------||----------||----
F---------------------------------------------------||*--------*||----
C---3--3--3--3--3--3--3--3--4--4--4--4--4--4--4--4--||*--------*||----
G---1--1--1--1--1--1--1--1--2--2--2--2--2--2--2--2--||----------||----
D---------------------------------------------------||----------||----

B
D----------------|-----------------------|--------------|-------------
A----------------|-----------------------|--------------|-------------
F----------------|-----------------------|-----------0--|-------------
C---4--7---------|--3--2--3--2--3--2--3--|--4--7--x--0--|-------------
G---2--5--x---x|--1--0--1--0--1--0--1--|--2--5--x-----|-------------
D----------------|-----------------------|--------------|-------------

End B
D------------------------||------------------------------------|------
A------------------------||------------------------------------|------
F------------------------||*-----------------------------------|------
C---3--2--3--2--3--2--3--||*--4-----------4--4-----------4--4--|------
G---1--0--1--0--1--0--1--||---2--2--2--2--2--2--2--2--2--2--2--|------
D------------------------||------------------------------------|------


D------|-----|---------------------------||---------------------------
A------|-----|---------------------------||---------------------------
F------|-----|--------------------------*||-----------------0---------
C---7--|--3--|--2--3--3--2--3--3--2--3--*||-----------------0---------
G---5--|--1--|--0--1--1--0--1--1--0--1---||--2--2-----2--2--2---------
D------|-----|---------------------------||--0--0-----0--0------------

C 3x
D---||----------------------------------------||----------------------
A---||----------------------------------------||----------------------
F---||*--------------------------------------*||----------------------
C---||*--------------------------------------*||----------------------
G---||---2--2-----2-----2-----2--------3--5---||----------------------
D---||---0--0-----0--0--0--0--0--0--0--1--3---||----------------------


D---||---------------------------------------------|------------------
A---||---------------------------------------------|------------------
F---||*--------------------------------------------|------------------
C---||*--------------------------------------------|------------------
G---||---2--2-----2--------3--3--3--3--5--5--5--5--|------------------
D---||---0--0-----0--0--0--1--1--1--1--3--3--3--3--|------------------


D---------------------------------------------------|-----------------
A---------------------------------------------------|-----------------
F---------------------------------------------------|-----------------
C---------------------------------------------------|-----------------
G---7--7--7--7--7--7--7--7--7--7--7--7--7--7--7--7--|-----------------
D---5--5--5--5--5--5--5--5--5--5--5--5--5--5--5--5--|-----------------


D---------------------------------------------------|-----------------
A---------------------------------------------------|-----------------
F---------------------------------------------------|-----------------
C---7--7--7--7--7--7--7--7--7--7--7--7--7--7--7--7--|-----------------
G---5--5--5--5--5--5--5--5--5--5--5--5--5--5--5--5--|-----------------
D---------------------------------------------------|-----------------


D----------------------------||---------------------------------------
A----------------------------||---------------------------------------
F---------------------------*||---------------------------------------
C---------------------------*||---------------------------------------
G---2--2--2--2--2--2--2--2---||---------------------------------------
D---0--0--0--0--0--0--0--0---||---------------------------------------

NH-------------------------------------------------- A
D---------------------------------------------------||----------||----
A---------------------------------------------------||----------||----
F---------------------------------------------------||*--------*||----
C---------------------------------------------3--3--||*--------*||----
G---------------------------------------3--3--------||----------||----
D---3--3--3--3--3--3--3--3--3--3--3--3--------------||----------||----

B
D---------||-----------------------------------------------|----------
A---------||-----------------------------------------------|----------
F---------||-----------------------------------------------|----------
C---------||-----------------------------------------------|----------
G---------||--2--2--2-----2--2--2-----2--2--2-----2--2--2--|----------
D---------||--0--0--0-----0--0--0-----0--0--0-----0--0--0--|----------

NH---------------------------------------
D---------------------------------------------|-----||----------------
A---------------------------------------------|-----||----------------
F---------------------------------------------|-----||----------------
C---------------------------------------------|-----||----------------
G---------------------------7--7--7--3--3--3--|--2--||----------------
D---3--3--3--3--7--7--7--7--------------------|--0--||----------------


======================================================================
== Created with a demo version of BUCKET O' TAB ==
== tablature creation software for Windows ==
== http://www.his.com/~gse/bucket ==
======================================================================





Ваше мнение



Капча