Samael
Son of Earth
Tabbed by Chris Lafser.
I had a hard time reading Chris's handwriting so this might not be entirely correct.
Tune all strings down 1 1/2 steps.


C#--||--------||------------------------------------|-----------------
G#--||--------||------------------------------------|-----------------
E---||--------||*-----------------------------------|-----------------
B---||--------||*-----------------------------------|-----------------
F#--||--------||---2--2-----------------------------|-----------------
C#--||--12---||---0--0--0--0--0--0--0--0--0--0--0--|-----------------


C#---------------------------------------||---------------------------
G#---------------------------------------||---------------------------
E---------------------------------------*||---------------------------
B---------------------------------------*||---------------------------
F#---------------------------------------||---------------------------
C#--0--0--0--0--0--0--0--0--0--0--0--0---||---------------------------


C#-----------------------|--------------|--------------||------|------
G#-----------------------|--------------|--------------||------|------
E------------------------|--------------|--------------||*-----|------
B------------------------|--------------|--------------||*-----|------
F#-----------------------|--------------|--------------||---2--|------
C#--0--0--0--0--1--1--1--|--1--1--1--1--|--1--1--1--1--||---0--|------


C#---------------------------||---------------------------------------
G#---------------------------||---------------------------------------
E---------------------------*||---------------------------------------
B---------------------------*||--2------------------------------------
F#--2h3-----2h3-----2h3------||--2------------------------------------
C#-----------------------3---||--0------------------------------------

C
C#--||-----------------------------------------|----------------------
G#--||-----------------------------------------|----------------------
E---||*----------------------------------------|----------------------
B---||*-----------7/9--7/9-----------5/7--5/7--|----------------------
F#--||------------5-7--5-7-----------3-5--3-5--|----------------------
C#--||---0--0--0------------0--0--0------------|----------------------


C#------------------------------------------||------------------------
G#------------------------------------------||------------------------
E------------------------------------------*||------------------------
B------------7/9--7/9--5--5--5--5--54-----*||------------------------
F#--0--0--0--5-7--5-7--3--3--3--3--3-2--5---||------------------------
C#--------------------------------------3---||------------------------

D
C#--||-----------------------------------|----------------------------
G#--||-----------------------------------|----------------------------
E---||*----------------------------------|----------------------------
B---||*--------7-9--7/9--------5/7--5/7--|----------------------------
F#--||---------5/7--5-7--------3-5--3-5--|----------------------------
C#--||---0--0------------0--0------------|----------------------------


C#---------------------------------------||--------------|------------
G#---------------------------------------||--------------|------------
E---------------------------------------*||--------------|------------
B---------7/9--7/9--5--5--5--5--54-----*||--2-----------|------------
F#--------5-7--5-7--3--3--3--3--3-2--5---||--2-----------|------------
C#--0--0-----------------------------3---||--0--0--5--3--|------------


C#--------------|--------------|-----------------|--------------------
G#--------------|--------------|-----------------|--------------------
E---------------|--------------|-----------------|--------------------
B---------------|--------------|-----------------|--------------------
F#--2-----------|--2-----------|--2--2-----------|--------------------
C#--0--0--5--3--|--0--0--5--3--|--0--0--0--5--3--|--------------------


C#--------------------------------------------------------------------
G#--------------------------------------------------------------------
E---------------------------------------------------------------------
B---------------------------------------------------------------------
F#--2-----------------------------------------------------------------
C#--0--5p3p0h3h5p3p0h3------------------------------------------------

4x
C#--||------------------------------------------------------||--------
G#--||------------------------------------------------------||--------
E---||*----------------------------------------------------*||--------
B---||*--------------------------------4-5--5--5--5--5--5--*||--------
F#--||---2--2-----------2--2-----------2/3--3--3--3--3--3---||--------
C#--||---0--0--5--3~~~--0--0--5--3~~~-----------------------||--------

A
C#--||------------------------|---------------------||----------------
G#--||------------------------|---------------------||----------------
E---||*-----------------------|--------------------*||----------------
B---||*--4--4--------3-----2--|--------6--6--6--6--*||----------------
F#--||---2--2--------2-----2--|--5--5--4--4--4--4---||----------------
C#--||---------0--0-----0-----|--3--3---------------||----------------

B A
C#--||----------------------------------------||--||----------||------
G#--||----------------------------------------||--||----------||------
E---||*--------------------------------------*||--||*--------*||------
B---||*--------------------------------------*||--||*--------*||------
F#--||---------------1-----------1--------1---||--||----------||------
C#--||---0--0-----0--0--0--0--0--0--0--0--0---||--||----------||------

B C D
C#--||----------||-----||----------||--||----------||-----------------
G#--||----------||-----||----------||--||----------||-----------------
E---||*--------*||-----||*--------*||--||*--------*||-----------------
B---||*--------*||-----||*--------*||--||*--------*||-----------------
F#--||----------||--2--||----------||--||----------||-----------------
C#--||----------||--0--||----------||--||----------||-----------------

PS
C#-------------------|-----|--------|---------------------------------
G#-------------------|-----|--------|---------------------------------
E--------------------|-----|--------|---------------------------------
B-----------------5--|--4--|--------|---------------------------------
F#--2----------2--3--|--2--|--2--2--|---------------------------------
C#--0--x------0-----|-----|--0--0--|---------------------------------

NH-----------------------
C#--------------------------------------------------------------------
G#--------------------------------------------------------------------
E---------------------------------------------------------------------
B---------------------------1--1--1-----------------------------------
F#--------------------------------------------------------------------
C#--3--3--3--3--3--3--3--3--------------------------------------------


C#--||---------------------------------|------------------------------
G#--||---------------------------------|------------------------------
E---||*--------------------------------|------------------------------
B---||*--------------------------------|------------------------------
F#--||---------------------------------|------------------------------
C#--||---0--0--0--0--0--0--0--0--0--0--|------------------------------

NH-- 4x E NH-- 6x
C#------------------------------------||--||---------|---------||-----
G#------------------------------------||--||---------|---------||-----
E------------------------------------*||--||*--------|--------*||-----
B------------------------------------*||--||*--------|--------*||-----
F#------------------------------------||--||---2--2--|---------||-----
C#--0--0--0--0--0--0--0--0--0--3--3---||--||---0--0--|--3--3---||-----

NH-- E 4x
C#--------||----------||-----||---------------------------------------
G#--------||----------||-----||---------------------------------------
E---------||*--------*||-----||---------------------------------------
B---------||*--------*||-----||---------------------------------------
F#--------||----------||--2--||---------------------------------------
C#--3--3--||----------||--0--||---------------------------------------


======================================================================
== Created with a demo version of BUCKET O' TAB ==
== tablature creation software for Windows ==
== http://www.his.com/~gse/bucket ==
======================================================================





Ваше мнение



Капча