Samael
Liquid Soul Dimension
Tabbed by Chris Lafser
I had a hard time reading Chris's handwriting so this might not be entirely correct.
Tune all strings down 1 whole step.

C 1,2,3 Times 3x
D---||---------------------------------|------------------------||----
A---||---------------------------------|------------------------||----
F---||*--------------------------------|-----------------------*||----
C---||*--------------------------------|-----------------------*||----
G---||---2--2-----2-----2--2-----2--2--|--2--2-----2-----2--2---||----
D---||---0--0-----0-----0--0-----0--0--|--0--0-----0-----0--0---||----

4th Time A
D-----------------||---------------------|--------------|-------------
A-----------------||---------------------|--------------|-------------
F-----------------||*--------------------|--------------|-------------
C-----------------||*--98--9------------|--------------|-------------
G---2--2--2--2--4/||---7-6--7--9--10-----|--5--5--6--3--|-------------
D---0--0--0--0--2-||-----------7--8---0--|--3--3--4--1--|-------------


D----------------------|---------------||-----------------------------
A----------------------|---------------||-----------------------------
F----------------------|--------------*||-----------------------------
C---9--8--9------------|--------------*||-----------------------------
G---7--6--7--9--10--0--|--5--5--6--3---||-----------------------------
D------------7--8------|--3--3--4--1---||-----------------------------

B
D---||------------------------------------------------|---------------
A---||------------------------------------------------|---------------
F---||*-----------------------------------------------|---------------
C---||*-----------------------------------------------|---------------
G---||------------------------7-----------6--------3--|---------------
D---||---0--7--7--8--0--0--0-----0--0--0-----0--0-----|---------------

A
D----------------------------------------------||--||----------||-----
A----------------------------------------------||--||----------||-----
F---------------------------------------------*||--||*--------*||-----
C---------------------------------------------*||--||*--------*||-----
G------------------------7--------6-----1------||--||----------||-----
D---0--7--7--8--0--0--0-----0--0-----0-----1---||--||----------||-----

B E
D---||----------||--||----------------------------------|-------------
A---||----------||--||----------------------------------|-------------
F---||*--------*||--||*---------------------------------|-------------
C---||*--------*||--||*---------------9-----8--------5--|-------------
G---||----------||--||------9--10-----7-----6--------3--|-------------
D---||----------||--||---0--7--8---0-----0-----0--0-----|-------------

C
D-----------------------------------||--||----------||----------------
A-----------------------------------||--||----------||----------------
F----------------------------------*||--||*--------*||----------------
C----------------9-----8-----------*||--||*--------*||----------------
G------9--10-----7-----6-----8--3---||--||----------||----------------
D---0--7--8---0-----0-----0--6--1---||--||----------||----------------


D---||---------------------------------|------||----------------------
A---||---------------------------------|------||----------------------
F---||*--------------------------------|-----*||----------------------
C---||*--------------------------------|--5--*||----------------------
G---||---2--2-----2-----2--2-----2--2--|--3---||----------------------
D---||---0--0-----0-----0--0-----0--0--|------||----------------------

1st Time 2nd Time
D---||------------------------------|------------||--------|----------
A---||------------------------------|------------||--------|----------
F---||*-----------------------------|-----------*||--------|----------
C---||*-----------------------------|--7--------*||--7--8--|----------
G---||---4--4-----4-----4--4--4--4--|--5---------||--5--6--|----------
D---||---2--2-----2-----2--2--2--2--|------------||--------|----------

D 1st Time 2nd TiEnd D
D---||------|------||--||------|---------||---------------------------
A---||------|------||--||------|---------||---------------------------
F---||*-----|-----*||--||*-----|--------*||---------------------------
C---||*-----|--5--*||--||*-----|--7-----*||--7--8---------------------
G---||---2--|--3---||--||---4--|--5------||--5--6---------------------
D---||---0--|------||--||---2--|---------||---------------------------

C
D---||----------||--||---------------------|--------------------------
A---||----------||--||---------------------|--------------------------
F---||*--------*||--||*--------------------|--------------------------
C---||*--------*||--||*-----------------9--|--------------------------
G---||----------||--||---2--2--2--9-----7--|--------------------------
D---||----------||--||---0--0--0--7--0--0--|--------------------------

1st Time 2nd time D
D----------------------||-------------||----------||------------------
A----------------------||-------------||----------||------------------
F---------------------*||-------------||*--------*||------------------
C---------------------*||-------------||*--------*||--9---------------
G---2--2--2--9--2--2---||-------------||----------||--7---------------
D---0--0--0--7--0--0---||--1/---------||----------||------------------

A B E C 4x
D---||----------||--||----------||--||----------||--||----------||----
A---||----------||--||----------||--||----------||--||----------||----
F---||*--------*||--||*--------*||--||*--------*||--||*--------*||----
C---||*--------*||--||*--------*||--||*--------*||--||*--------*||----
G---||----------||--||----------||--||----------||--||----------||----
D---||----------||--||----------||--||----------||--||----------||----


======================================================================
== Created with a demo version of BUCKET O' TAB ==
== tablature creation software for Windows ==
== http://www.his.com/~gse/bucket ==
======================================================================





Ваше мнение



Капча