Samael
Jupiterian Vibe
Tabbed by Chris Lafser
I had a bit of a hard time reading Chris's handwriting so this may not be
AH
E--------------------------------|-------------------------------|------
A--------------------------------|-------------------------------|------
F--------------------------------|-------------------------------|------
C---4-----4~~~-----4-----4/6~~~--|--4-----4~~~-----4-----4/6~~~--|------
G------3--------------3----------|-----3--------------3----------|------
D--------------------------------|-------------------------------|------


E---------------------------------------------|-------------------------
A---------------------------------------------|-------------------------
F---------------------------------------------|-------------------------
C---4-----4/6~~~--4-----4/6~~~--4-----4/6~~~--|-------------------------
G------3-------------3-------------3----------|-------------------------
D---------------------------------------------|--3/15------------------

A AH AH
E---||----------------------------------------------||------------------
A---||----------------------------------------------||------------------
F---||*--------------------------------------------*||------------------
C---||*-----6--5-----4~~~--------6--4--------4~~~--*||------------------
G---||---3-----------------3--3---------------------||------------------
D---||------------2--------------------2--2---------||------------------

B A 2 Times
E---||---------------|----------------|--------------|------------------
A---||---------------|----------------|--------------|------------------
F---||*--------------|----------------|--------------|------------------
C---||*--3--3--3--3--|--3/8--8--8--8--|--------------|------------------
G---||---1--1--1--1--|--1-6--6--6--6--|--------------|------------------
D---||---------------|----------------|--------------|------------------

B 2 Times C
E---------------|--||---------------|---------------------||------------
A---------------|--||---------------|---------------------||------------
F---------------|--||*--------------|--------------------*||------------
C---------------|--||*--5--5--5--5--|--5/10--10--10--10--*||------------
G---------------|--||---3--3--3--3--|--3-8---8---8---8----||------------
D---------------|--||---------------|---------------------||------------

Bass and Keyboards
E-----------------------------------------------------------------------
A-----------------------------------------------------------------------
F-----------------------------------------------------------------------
C-----------------------------------------------------------------------
G-----------------------------------------------------------------------
D-----------------------------------------------------------------------

D AH on 3rd Time 3x
E---||---------------------------------------||----------------|--------
A---||---------------------------------------||----------------|--------
F---||*-------------------------------------*||----------------|--------
C---||*--4-----4~~~--------------4-----4/6--*||--4-----4/6~~~--|--------
G---||------3-----------------------3--------||-----3----------|--------
D---||---------------------------------------||----------------|--------

End D A 2 Times
E----------------------------------|--------------|---------------------
A----------------------------------|--------------|---------------------
F----------------------------------|--------------|---------------------
C---5--5--5--5--5------------------|--------------|---------------------
G---3--3--3--3--3------------------|--------------|---------------------
D------------------31--3---------|--------------|---------------------

B 2 Times A 2 Times B 2 Times C 2
E------------------|--------------|----|-----------------|--------------
A------------------|--------------|----|-----------------|--------------
F------------------|--------------|----|-----------------|--------------
C------------------|--------------|--5|-----------------|--------------
G------------------|--------------|--3-|-----------------|--------------
D------------------|--------------|----|-----------------|--------------

D AH on 1st Time A 2 Times
E---------------|-----------------------------|-----------------|-------
A---------------|-----------------------------|-----------------|-------
F---------------|-----------------------------|-----------------|-------
C---------------|-----------------------------|-----------------|-------
G---------------|-----------------------------|-----------------|-------
D---------------|-----------------------------|-----------------|-------

B 2 Times A 4 Times
E------------------|--------------|--------||---------------------------
A------------------|--------------|--------||---------------------------
F------------------|--------------|--0--0--||---------------------------
C------------------|--------------|--2--2--||---------------------------
G------------------|--------------|--3--3--||---------------------------
D------------------|--------------|--------||---------------------------


========================================================================
== TABLATURE EXPLANATION ==
========================================================================
---------- ---------- ----t---
----5h8--- Hammeron ----(8)--- Ghost ----6--- Tap
---------- ---------- Note --------
----5p8--- Pulloff ---------- --------
---------- ---------- -----p--
----5/8--- Slide Up -----x---- Dead -----7-- Pop
---------- ---------- Note --s-----
----58--- Slide Down ---------- --5----- Slap
---------- ||------|| Repeat --------
----5~~~-- Vibrato ||*----*|| ---5^--- Bend
---------- ||*----*|| --------
---------- ||------|| --------
---------- ---------- --------
-4:------- Time ---------- --------
-4:------- Signature ---------- --------
---------- ---------- --------
Rhythm:
w = whole note W = dotted whole
h = half note H = dotted half
q = quarter note Q = dotted quarter
e = eighth note E = dotted eighth
s = sixteenth note S = dotted sixteenth
t = 32nd note T = dotted 32nd
x = 64th note X = dotted 64th
^ = triplet





Ваше мнение



Капча