FLAGELLATION
By SAMAEL
From Ceremony of Opposites
Transcribed by Yalin Uluaydin E-Mail: [email protected]
. - palm mute / - slide up to
- slide down to ~ - vibrato
h - hammer on b - bend
p - pull off Suffixes for bend
t - tap with finger f - full bend h - half bend
() - ghost note r - release t - tap bend
* - see comment p - pick when bent
Tune 1 1/2 step down
E=C#
B=G#
G=E
D=B
A=F#
E=C#
RIFF A
E---------|---------------------------------------------|
B---------|---------------------------------------------|
G---------|---------------------------------------------|
D---------|---------------------------5-----------------|
A-----5---|---2-2---------------------3-----------------|
E---3-3---|---0-0-0-0-000-000-------333-3-3-333-333-----|
. . . ... ... .. . . ... ...
E------------------------------------------|
B------------------------------------------|
G------------------------------------------|
D------------------------5-----------------|
A-----2------------------3-----------------|
E---000-0-0-000-000----333-3-3-333-333-----|
.. . . ... ... .. . . ... ...
RIFF B
E-------------------------------------------------------------------------|
B-------------------------------------------------------------------------|
G-------------------------------------------------------------------------|
D--------------------------2--------4----------------------------2----4---|
A-----2------------------000------222--------2-----------------000--222---|
E---000-0-0-000-000------------------------000-0-0-000-000----------------|
.. . . ... ... .. .. .. . . ... ... .. ..
RIFF C
E------------------------------------------------------------------------------|
B------------------------------------------------------------------------------|
G------------------------------------------------------------------------------|
D---------------------2-4-----------------5-----------------5--------5-----5---|
A-----2---------------2-2-2-2-222-222-----3-----------------3--------3-----3---|
E---000-0-0-000-000---------------------333-3-3-333-333---333-3-3-3333--3333---|
.. . . ... ... . . ... ... .. . . ... ... .. . . ... ...
E------------------------------------------------------------------------------|
B------------------------------------------------------------------------------|
G------------------------------------------------------------------------------|
D---------------------2-4-----------------5-----------------5--------5-----5---|
A-----2---------------2-2-2-2-222-222-----3-----------------3--------3-----3---|
E---000-0-0-000-000---------------------333-3-3-333-333---333-3-3-3333--3333---|
.. . . ... ... . . ... ... .. . . ... ... .. . . ... ...
BRIDGE
E---------------|-----------------------------------------------------|
B---------------|-----------------------------------------------------|
G---------------|-----------------------------------------------------|
D---2-----------|------------------------4-----------------2------5---|
A---0---2-------|-----2------------------2-2-2-222-222---000----666---|
E-------0--3----|---000-0-0-000-000----00-----------------------------|
.. . . ... ... .. . . ... ... .. ..
RIFF D
E--------------------------------------------------------------|
B--------------------------------------------------------------|
G--------------------------------------------------------------|
D--------------------------------------------------------------|
A-----------------------0-0-2-3----------------------0-0-2-3---|
E---0-0-0-0-0-0-0-0-0-0----------3-3-3-3-3-3-3-3-3-3-----------|
. . . . . . . . . . . . . . . . . . . . . . . .
E--------------------------------------------------------------|
B--------------------------------------------------------------|
G--------------------------------------------------------------|
D--------------------------------------------------------------|
A-----------------------0-0-2-3----------------------0-0-2-3---|
E---0-0-0-0-0-0-0-0-0-0----------3-3-3-3-3-3-3-3-3-3-----------|
. . . . . . . . . . . . . . . . . . . . . . . .
RIFF E Play 2 times
E-------------------------------------------|
B-------------------------------------------|
G-------------------------------------------|
D-------4-5--------------------4-5----------|
A-------2-3--------------------2-3----2-2---|
E---000------000-0-0-000---000-----00-0-0---|
... ... . . ... ... ..
RIFF F Play 3 times
E----------------------------------------------------------|
B----------------------------------------------------------|
G----------------------------------------------------------|
D-------4-5---------------h-------4-5---------------h------|
A-------2-3-----2-----h--0^2------2-3-----2-----h--0^2-----|
E---000-----000-0-00-2^3------000-----000-0-00-2^3---------|
... ... .. ... ... ..
E----------------------------------------------------------|
B----------------------------------------------------------|
G----------------------------------------------------------|
D-------4-5---------------h-------4-5----------------------|
A-------2-3-----2-----h--0^2------2-3-----2-----2----------|
E---000-----000-0-00-2^3------000-----000-0-000-0----------|
... ... .. ... ... ..
| |Played second time
E|------------|
B|------------|
G|------------|
D|-7-5-----4--|
A|-5-3-----2--|
E|-----000----|
...
RIFF G Play 16 times BRIDGE Play 2 times
E-----------------|---------------------------|
B-----------------|---------------------------|
G-----------------|---------------------------|
D-----------------|---------------------------|
A---2-222-2-222---|---2------2---2------3-3---|
E---0-000-0-000---|---0------3---0------1-1---|
... . ... . .
RIFF H Play 1 time
E-------------------------------------------------------|
B-------------------------------------------------------|
G-------------------------------------------------------|
D-------------------------------------------------------|
A-------2--------------------------2----------------3---|
E---0-0-0-0-0-0-0-0--0-0-0-0---0-0-0-0-0-0-0-0--0-0-1---|
. . . . . . . . . . . . . . . . . . . .
E-----------------------------------------------------------|
B-----------------------------------------------------------|
G-----------------------------------------------------------|
D-----------------------------------------------------------|
A---------2----------------------------2----------------3---|
E---0-0-0-0-0-0-0-0-0--0-0-0-0---0-0-0-0-0-0-0-0-0--0-0-1---|
. . . . . . . . . . . . . . . . . . . . . .
RIFF I Play 2 times
E-------------------------------------|
B-------------------------------------|
G-------------------------------------|
D-------------------------------------|
A---2--2-2--2-2-2--2--2-2--2--2-2-2---|
E---0--0-0--0-0-0--0--0-0--0--0-0-0---|
Play RIFF H 2 times
RIFF I2 Play 2 times
E------------------------------------------|
B------------------------------------------|
G------------------------------------------|
D------------------------------------------|
A---2----------------2--2--------------3---|
E---0--000--000--000-3--0--000-000-000-1---|
... ... ... ... ... ...
Play second time
E---------------------|
B---------------------|
G---------------------|
D---------------------|
A---0-0-0-0-0-0-0-0---|
E---------------------|
Play RIFF F 2 times
Play RIFF G 16 times
Play RIFF C 1 1/2 times
Play RIFF D 1 time





Ваше мнение



Капча