Samael
Crown
Tabbed by Chris Lafser.
I had a hard time reading Chris's handwriting so this might not be entirely correct.
Tune all strings down 1 1/2 steps.

C#--||----------------------------------|-----------------------------
G#--||----------------------------------|-----------------------------
E---||*---------------------------------|-----------------------------
B---||*---------------------------------|-----------------------------
F#--||---10--9--7~~~--------7-----5-----|-----------------------------
C#--||----------------0--0-----0-----0--|-----------------------------

A
C#----------------------------||--||----------------------------|-----
G#----------------------------||--||----------------------------|-----
E----------------------------*||--||*---------------------------|-----
B----------------------9--7--*||--||*---------------------------|-----
F#--10--9--7~~~--------7--5---||--||---10--9--7--7--7--7--7--7--|-----
C#---------------0--0---------||--||---0---0--0--0--0--0--0--0--|-----


C#--------------------------|----------------------------||-----------
G#--------------------------|----------------------------||-----------
E---------------------------|---------------------------*||-----------
B---------------------------|---------------------9--7--*||-----------
F#--5--5--5--5--7--7--7--7--|--10--9-----7--------7--5---||-----------
C#--0--0--0--0--0--0--0--0--|--0---0--0--0--0--0---------||-----------

H
C#--------------------|-----------------------------------------------
G#--------------------|-----------------------------------------------
E---------------------|-----------------------------------------------
B---------------------|-----------------------------------------------
F#--2--2--------2--2--|--2--2-----------2--------3p0------------------
C#--0--0--0--0--0--0--|--0--0--0--0--0-----0--0-----------------------

A B A
C#--||----------||--||---------|------------||--||----------||--------
G#--||----------||--||---------|------------||--||----------||--------
E---||*--------*||--||*--------|-----------*||--||*--------*||--------
B---||*--------*||--||*-----2--|-----5--4--*||--||*--------*||--------
F#--||----------||--||---2--0--|--3--3--2---||--||----------||--------
C#--||----------||--||---0-----|--1---------||--||----------||--------

B C
C#--||----------||--------------------|--------------------|----------
G#--||----------||--------------------|--------------------|----------
E---||*--------*||--------------------|--------------------|----------
B---||*--------*||--------------5--4--|--------------5--4--|----------
F#--||----------||--3--2--0-----3--2--|--3--2--0-----3--2--|----------
C#--||----------||-----------0--------|-----------0--------|----------

End C D
C#-----------------------------||--------------------|----------------
G#-----------------------------||--------------------|----------------
E------------------------------||*-------------------|----------------
B------------------------------||*--------7/9--9--9--|----------------
F#--5--2--0-----3--2--0--------||---2--2--5-7--7--7--|----------------
C#-----------0-----------3-----||---0--0-------------|----------------

3x
C#----------------|-------------------|---------------------||--------
G#----------------|-------------------|---------------------||--------
E-----------------|-------------------|--------------------*||--------
B-----------------|--------7/9--9--9--|--------------------*||--------
F#-----2-------2--|--2--2--5-7--7--7--|--2--2--2--2---------||--------
C#--0--0--3p0--0--|--0--0-------------|--0--0--0--0--5--3---||--------

C
C#-----------------------|----------------------|---------------------
G#-----------------------|----------------------|---------------------
E------------------------|----------------------|---------------------
B------------------------|----------------------|---------------------
F#--2--2--2-----2--2--2--|--2--2--2--2--2-------|---------------------
C#--0--0--0-----0--0--0--|--0--0--0--0--0--5---|---------------------

D 3x C
C#--||----------||-------------------|--------------------------------
G#--||----------||-------------------|--------------------------------
E---||*--------*||-------------------|--------------------------------
B---||*--------*||--------7/9--9--9--|--------------------------------
F#--||----------||--2--2--5-7--7--7--|--------------------------------
C#--||----------||--0--0-------------|--------------------------------

E
C#--||------------------------|---------------------------------------
G#--||------------------------|---------------------------------------
E---||*-----------------------|---------------------------------------
B---||*-----------------------|---------------------------------------
F#--||------------------------|---------------------------------------
C#--||---0--0--0--0--1--1--1--|---------------------------------------


C#-----------------------------------------------------|--------------
G#-----------------------------------------------------|--------------
E------------------------------------------------------|--------------
B------------------------------------------------------|--------------
F#--7--7--7--7--7--7--7--------------------------------|--------------
C#-----------------------8--8--8--8--8--8--8--7--7--7--|--------------

4x
C#-----------------------|------------------------------||------------
G#-----------------------|------------------------------||------------
E------------------------|-----------------------------*||------------
B------------------------|-----------------------------*||------------
F#-----------------------|--------4--5-----4--5-----4---||------------
C#--7--7--7--7--1--1--1--|--0--0--5--3--0--5--3--0--2---||------------


C#--||---------------------------------|------------------------------
G#--||---------------------------------|------------------------------
E---||*--------------------------------|------------------------------
B---||*--------------------------------|------------------------------
F#--||---2--2-----------2--2--------7--|------------------------------
C#--||---0--0--0--0--0--0--0--0--0--0--|------------------------------

4x
C#--------------------------------------||----------------------------
G#--------------------------------------||----------------------------
E--------------------------------------*||----------------------------
B--------------------------------------*||----------------------------
F#--2--2-----------3--2--0--------------||----------------------------
C#--0--0--0--0--0-----------5--3--2p0---||----------------------------

F
C#--||------------------------------------------------||--------------
G#--||------------------------------------------------||--------------
E---||*----------------------------------------------*||--------------
B---||*----------------------------------------------*||--------------
F#--||---2--2--2--2/7--7--7--7--3--2--0--0--0--5--4---||--------------
C#--||---0--0--0--0-0--0--0--0--0--0--0--0--0--3--2---||--------------

E F
C#--||----------||--||----------||------------------------------------
G#--||----------||--||----------||------------------------------------
E---||*--------*||--||*--------*||------------------------------------
B---||*--------*||--||*--------*||------------------------------------
F#--||----------||--||----------||------------------------------------
C#--||----------||--||----------||------------------------------------


C#--||---------------------------------------------------|------------
G#--||---------------------------------------------------|------------
E---||*--------------------------------------------------|------------
B---||*--------------------------------------------------|------------
F#--||---7--7--7--7--------------7--7--7--7--------------|------------
C#--||---------------0--0--0--0--------------0--0--0--0--|------------


C#--------------------------|------------------------------|----------
G#--------------------------|------------------------------|----------
E---------------------------|------------------------------|----------
B---------------------------|------------------9--9--9--9--|----------
F#--7--7--7--7--------------|--10--10--10--10--------------|----------
C#--------------0--0--0--0--|------------------------------|----------

4x
C#-----------------------|------------------------------||------------
G#-----------------------|------------------------------||------------
E------------------------|-----------------------------*||------------
B------------------------|-----------------------------*||------------
F#-----------------------|--------4--5-----4--5-----4---||------------
C#--7--7--7--7--1--1--1--|--0--0--5--3--0--5--3--0--2---||------------

G H
C#--||----------------------------------------||----------------------
G#--||----------------------------------------||----------------------
E---||*--------------------------------------*||----------------------
B---||*--------------------------------------*||----------------------
F#--||---2--------7--3--5--4--5--4--5-----4---||----------------------
C#--||---0--0--0--0--0--0--2--3--0--3--0--2---||----------------------

G 4x
C#--||----------||-----||---------------------------------------------
G#--||----------||-----||---------------------------------------------
E---||*--------*||-----||---------------------------------------------
B---||*--------*||-----||---------------------------------------------
F#--||----------||--2--||---------------------------------------------
C#--||----------||--0--||---------------------------------------------


======================================================================
== Created with a demo version of BUCKET O' TAB ==
== tablature creation software for Windows ==
== http://www.his.com/~gse/bucket ==
======================================================================





Ваше мнение



Капча