Baphomet's Throne
By SAMAEL
From Ceremony of Opposites
Transcribed by Yalin Uluaydin E-Mail:[email protected]
. - palm mute / - slide up to
- slide down to ~ - vibrato
h - hammer on b - bend
p - pull off Suffixes for bend
t - tap with finger f - full bend h - half bend
() - ghost note r - release t - tap bend
* - see comment p - pick when bent
Tune 1 1/2 step down
E=C#
B=G#
G=E
D=B
A=F#
E=C#
RIFF A Play 4 times
E-------------------------------------------|
B-------------------------------------------|
G-------------------------------------------|
D--------------9--8--9----------------------|
A-----2--2-----7--6--7--10--9--10---9---5---|
E-----0--0--------------8---7--8----7---3---|
RIFF B Play 2 times
E-------------------------------------------------------|
B-------------------------------------------------------|
G-------------------------------------------------------|
D-----------7--6--7--6-------------7--6--7-----6--------|
A-----4--4--5--4--5--4---4---4--4--5--4--5--4--4--------|
E-----2--2---------------5---2--2-----------5-----0-0---|
. .
Play RIFF A 2 times
RIFF C Play 2 times
E---------------------------------------------------|
B---------------------------------------------------|
G---------------------------------------------------|
D---------------------------------------------------|
A--2--------------2-2-2-2-2---------------2-2-2-2---|
E--0--0--0--0--0--0-0-0-0-0--0--0--0--00--0-0-0-0---|
. . . . . . . ..
RIFF D
E-------------------------------------------------------------------|
B-------------------------------------------------------------------|
G-------------------------------------------------------------------|
D-------------------------------------------------------------------|
A----8/78-------2--------2---------8/78----------2------2---------|
E----6/56--5----0--0--0--0--0--0---6/56--5-------0---0--0--0--0---|
N.H. . . . . N.H. . . .
E------------------------------------------------------------|
B------------------------------------------------------------|
G------------------------------------------------------------|
D------------------------------------------------------------|
A----8/78-------2--------2---------8/78------5--5--3/5-3---|
E----6/56--5----0--0--0--0--0--0---6/56--5---3--3--1/3-1---|
Play RIFF C 1 time
E----------|
B----------|
G----------|
D----------|
A--x------|
E--x------|
pick slide
Play RIFF D 1 time
E--------------|
B--------------|
G--------------|
D--------------|
A---2----2-2---|
E---0----0-0---|
. .
RIFF E
E---------------------------------------------------|
B---------------------------------------------------|
G---------------------------------------------------|
D------4--3-----------------------------------------|
A---2--2--1-------5/7-----76-----65-----21-------|
E---0----------0--3/5--0--54--0--43--0--32---0---|
. . . . .
E-------------------------------------------------|
B-------------------------------------------------|
G-------------------------------------------------|
D------4--3---------------------------------------|
A---2--2--1-------5/7-----76-----65-----1-------|
E---0----------0--3/5--0--54--0--43--0--2---0---|
. . . . .
Play RIFF C 2 times
Play RIFF D 1 time
BRIDGE Play 2 times
E-------------------|
B-------------------|
G-------------------|
D-------------------|
A---2--------2--1---|
E---0---0-0--3--3---|
. .
RIFF F Play 2 times
E-------------------------------------------------|
B-------------------------------------------------|
G-------------------------------------------------|
D-------------------------------------------------|
A--2-2---2-2-2-2---2-2---2-2--2-2--9/1097-97---|
E--0-0---0-0-0-0---0-0---3-3--3-3--7/8-75-75---|

RIFF G Play 2 times
E--------------------------------| > E---------------------------------------------|
B--------------------------------| > B---------------------------------------------|
G--------------------------------| > G---------------------------------------------|
D--------------------------------| > D---------------------------------------------|
A---9/1097-9-97---5-5-5-------| > A---9/1097-9---9/1097-9-97---5-5-5-------|
E---7/8-75-7-75---3-3-3-0-0---| > E---7/8-75-7---7/8-75-7-75---3-3-3-0-0---|
. . Played second time . .
E-----------------------------------|
B-----------------------------------|
G-----------------------------------|
D-----------------------------------|
A---9/1097-9-97--5-5--5-2-2--2---|
E---7/8-75-7-75--3-3--3-2-2--2---|
E-----------------------|
B-----------------------|
G-----------------------|
D-----------------------|
A--2--------2----2--2---|
E--0----3---0----0--0---|
Play RIFF E 2 times
Play RIFF A 4 times
Play RIFF B 1 time
Play RIFF A 2 times





Ваше мнение



Капча