intro - some kind of tremolo
eb------------------------------| x4
Bb------------------------------|
Gb------------------------------|
Db------------------------------|
Ab-----------1-1-1--------------|
Eb-3-3-1-3-3--------------------|

then distortion

eb
Bb
Gb
Db--5-5-3-5-5-8-8-8-|
Ab--5-5-3-5-5-8-8-8-|
Eb--3-3-1-3-3-6-6-6-|

verse/chorus (palm mute during verse, wide open in chorus)

eb-----------------------|
Bb-----------------------|
Gb-----------------------|
Db--5---3---10---8-------|
Ab--5---3---10---8-------|
Eb--3---1----8---6-------|

Will try to learn solo later




Ваше мнение



Капча