Saliva
Rest In Pieces
Tabbed by David Richardson
D G6/D Bm F#
x|x|0|2|3|2 x|x|0|0|3|0 x|2|4|4|3|2 x|x|4|3|2|2

G Gm B5 D5
x|x|4|3|2|2 x|x|5|3|3|3 9|9|9|x|x|x 12|12|12|x|x|x
G5 Bb5 C5
5|5|5|x|x|x 8|8|8|x|x|x 10|10|10|x|x|x

Drop D tuning, down 1/2 step
(low to high) Db-Ab-Db-Gb-Bb-Eb
Intro

D G6/D
Riff A End Riff A
Gtr.1 (clean)
Let ring - - - - - - - - - - - - - - - - - - - - - -|
|--------------2-----------|--------------0------------|
|-------3---------3-----3--|-------3---------3-----3---|
|----2-----2---------2-----|----0-----0---------0------|
|-0------------------------|-0-------------------------|
|--------------------------|---------------------------|
|--------------------------|---------------------------|

Gtr.1:w/Riff A
D G6/D
Riff B
Gtr.2 (clean)
w/Leslie
|--------------------------|---------------------5-----|
|-5----------7-------------|-5----------7--------------|
|--------------------------|---------------------------|
|--------------------------|---------------------------|
|--------------------------|---------------------------|
|--------------------------|---------------------------|
Verse
Gtr.1:w/Riff A (2 times)
2nd time,Gtr.2:w/Riff B (2 times)
D G6/D D
Gtr.3 (clean)
w/chorus
|---------------------|-----------------------|----------------------
|-7-------------------|-----------------------|----------------------
|---------------------|-----------------------|----------------------
|---------------------|-----------------------|----------------------
|---------------------|-----------------------|----------------------
|---------------------|-----------------------|----------------------
1.Look at me, my depth per-ception must be off a-gain___ cause
spine 2.You look so beau – ti – ful__ to – night. Re-
3.Look at me, my depth per-ception must be off a-gain___ You
G6/D Bm F#
Gtr.2
|---------------------|-----------------------|----------------------
|---------------------|-5--------7------------|-5--------7-----------
|---------------------|-----------------------|----------------------
|---------------------|-----------------------|----------------------
|---------------------|-----------------------|----------------------
|---------------------|-----------------------|----------------------
Gtr.1
let ring - - - - - - - - - - - - - - - - - - -
|--------------------|--------------2----------|-----------2---------
|--------------------|-------3---------3-----3-|--------------2----2-
|--------------------|----------4---------4----|------3----------3---
|--------------------|----4--------------------|---4----4------------
|--------------------|-2-----------------------|---------------------
|--------------------|-------------------------|-4-------------------
this hurts deeper than I thought it did. It has not healed with time
minds me how you laid us down__ and gen – tly smiled_ be-
got much clos-er than I thought you did.__ I’m in your reach,__ you
G Gm
Fill 1 End Fill 1
|---------------------------------|----------------------------------
|---5------------7----------------|--8-------------------------------
|---------------------------------|----------------------------------
|---------------------------------|----------------------------------
|---------------------------------|----------------------------------
|---------------------------------|----------------------------------
let ring - - - - - - - - - - - - - - - - - - - - - - - - - - - - -|
|-------------------3-------------|------------------3---------------
|-----------------------3---------|----------------------3-----------
|------------4--------------4-----|-----------3--------------3-------
|-------5--------5-------------5--|------5--------5--------------5---
|---------------------------------|----------------------------------
|---5-----------------------------|--5-------------------------------
___ It just shot down my
fore you de-stroyed my life.__
held me in your hand.__
Chorus
Gm B5
Gtr.2:w/Fill 1
Gtr.1 *Gtr.4 (dist.)
Let ring - - - - - - - - - - - - -
|--3------------------------------|-------------------2--------------
|--3------------------------------|---------3--------------3-------3-
|--3------------------------------|-----4-------4--------------4-----
|--5------------------------------|-4--------------------------------
|--x------------------------------|----------------------------------
|--5------------------------------|----------------------------------
*Doubled throughout
___ Would you find it in_ your heart to make_ this go away
D5 G5
let ring - - - - - - - - - - - - - - - - - - - - - - - - - - - - -
|------------------2--------------|-------------------3--------------
|----------3-----------3-------3--|---------3--------------3-------3-
|------2-------2-----------2------|-----4-------4--------------4-----
|--0------------------------------|-5--------------------------------
|---------------------------------|----------------------------------
|---------------------------------|----------------------------------
___ and let me rest in piec - es?_____________________
(Let me rest in

B5
Rhy.Fig.1
Riff C
let ring - - - - - - - - - - - - - - - - - - - - - - - - - - - - -
|------------------3--------------|-------------------2--------------
|----------3-----------3--------3-|---------3--------------3-------3-
|------3-------3------------3-----|-----4-------4--------------4-----
|--5------------------------------|-4--------------------------------
|---------------------------------|----------------------------------
|---------------------------------|----------------------------------
___ Would you find it in your heart to make_ this go a – way
piec – es.)_____________
D5 G5
let ring - - - - - - - - - - - - - - - - - - - - - - - - - - - - -
|------------------2--------------|-------------------3--------------
|----------3-----------3--------3-|---------3--------------3-------3-
|------2------2-------------2-----|-----4-------4--------------4-----
|--0------------------------------|-5--------------------------------
|---------------------------------|----------------------------------
|---------------------------------|----------------------------------
___ and let me rest in piec - es?_________________________
(Let me rest in
Interlude
End Rhy.Fig 1
End Riff C Gtr.1:w/Riff C (x2)
Bb5 C5 D
let ring - - - - - - - - - - - - - - - - -| Gtr.4
|---------------------------------------------|----------------------
|-------------3------------------------5------|----------------------
|-------3----------3-------------5----------5-|----------------------
|--3-----------------------5------------------|--12------------------
|---------------------------------------------|--12------------------
|---------------------------------------------|--12------------------
____
piec - es,______ piec - es.)__________
Gtr.2:w/Riff B Gtr.4 tacet
G6/D D G6/D
|---------------------|-----------------------|----------------------
|---------------------|-----------------------|----------------------
|---------------------|-----------------------|----------------------
|--(12)---------------|-----------------------|----------------------
|--(12)---------------|-----------------------|----------------------
|--(12)---------------|-----------------------|----------------------
Chorus
Gtr.4 tacet
Bm D
Let ring - - - - - - - - - - - - - - - - - - -
|---------------------|--------------2--------|-------------2--------
|---------------------|-------3---------3---3-|-------3--------3---2-
|---------------------|----4-----4--------4---|----2----2--------2---
|---------------------|-4---------------------|-0--------------------
|---------------------|-----------------------|----------------------
|---------------------|-----------------------|----------------------
Would you find it in your heart to make this go away and let me rest
Piec – es.)
G Gm Bm
|---------------------|-----------------------|----------------------
|---------------------|-----------------------|-5h7------------------
|---------------------|-----------------------|----------------------
|---------------------|-----------------------|----------------------
|---------------------|-----------------------|----------------------
|---------------------|-----------------------|----------------------
let ring - - - - - - - - - - - - - - - - - - - - - - - - - - - - - -
|-----------3---------|--------------3--------|-------------2--------
|------3-------3----3-|-------3---------3---3-|-------3--------3---3-
|---4----4--------4---|----3-----3--------3---|----4----4--------4---
|-5-------------------|-5---------------------|-4--------------------
|---------------------|-----------------------|----------------------
|---------------------|-----------------------|----------------------
piec – es?____ Would you find it in your heart to make this go away
D G Gm
|-----------------5---|-----------------------|----------------------
|-5-------7-----------|-5--------7------------|-8--------------------
|---------------------|-----------------------|----------------------
|---------------------|-----------------------|----------------------
|---------------------|-----------------------|----------------------
|---------------------|-----------------------|----------------------
let ring - - - - - - - - - - - - - - - - - - - - - - - - - - - - -|
|-----------2---------|--------------3--------|-------------3--------
|------3-------3----3-|-------3---------3---3-|-------3--------------
|---2----2--------2---|----4-----4--------4---|----3----3------------
|-0-------------------|-5---------------------|-5--------------------
|---------------------|-----------------------|----------------------
|---------------------|-----------------------|----------------------
____ and let me rest in piec – es?_______ Would you find it in your
Outro-Chorus
Gtr.1:w/Riff C
Gtr.2 tacet
Gtr.4:w/Rhy.Fig.1

B5 D5
heart to make___ this go a – way____ and let me rest in
G5 Bb5 C5
piec – es?______________________ Would you find it in your
(Let me rest in piec-es.)_________
D5 Bb5 C5
Rhy.Fig.2 End Rhy.Fig.2
Gtr.4
heart?____________________________________________________________
(Would you find it in your__________ heart?__
(Would you find it in your heart? Would you let me rest in pieces
Riff D End Riff D
Gtr.1
let ring - - - - - - - - - - - - - - - - - - - - - - - - - - - - -|
|------------------2--------------|----------------------------------
|----------3-----------3--------3-|---------3------------------5-----
|------2------2-------------2-----|-----3-------3----------5-------5-
|--0------------------------------|-3-----------------5--------------
|---------------------------------|----------------------------------
|---------------------------------|----------------------------------
Gtr.1:w/Riff D (2 times)
Gtr.4:w/Rhy.Fig.2 (3 times)

D5 Bb5 C5 D5
____________________________ Would you find it in your heart?_______
____ Would you find it in your__ heart? Would you find it in your
(Na, na, na, na, na, na.)

Bb5 C5 D5 Bb5 C5 D5
Gtr.1 Gtr.4
Let ring - - - - - - - - - - - - - - - - - -|
|---------------|-------------2---------|----------------------|-2---
|---------------|-------3--------3----3-|-------3----------5---|-3---
|---------------|----2----2---------2---|----3----3-----5----5-|-2---
|---------------|-0---------------------|-3----------5---------|-0---
|---------------|-----------------------|----------------------|-----
|---------------|-----------------------|----------------------|-----
___________ heart?__ Would you find it in your___________ heart?)




Ваше мнение



Капча