Song: Musta Been Wrong
Artist: Saliva
Album: Every Six Seconds
Tabbed By: Cheran Shunmugavel
[email protected]
Lowered One and a Half-Step Tuning (Db Gb B E)
Main Riff
E -------------------------------
B -------------------------------
Gb-------------------------------
Db--3-5-5-3-5--3-5--3-5-3-6-6-6--
Verse
E ----------------------
B ----------------------
Gb----.----.----.----.--
Db--3-5--3-5--3-5--3-5--
PM ^ ^ ^ ^ ^ ^ ^ ^
Mid-verse 1 Fill .
E ------------------------0--
B ---------------------------
Gb----.----.----.----.-------
Db--3-5--3-5--3-5--3-5-------
PM ^ ^ ^ ^ ^ ^ ^ ^
End of Verses (Both 1 and 2)
E ------------------------------
B ------------------------------
Gb----.----.----.---------------
Db--3-5--3-5--3-5--3-5-3-6-6-6--
PM ^ ^ ^ ^ ^ ^
Mid-verse 2 Fill
E -------------------------------
B -------------------------------
Gb----.----.----.----.----3-5-3--
Db--3-5--3-5--3-5--3-5--5--------
PM ^ ^ ^ ^ ^ ^ ^ ^
Chorus
E --------------------------------------------------
B --------------------------------------------------
Gb--------------------------------------------------
Db--3--3--3--3-3--3-3--3-3--1--1--1--1-1--1-1--1-1--
Bridge X3
E ----------------------------------
B ----------------------------------
Gb----------.---------.-------------
Db--3-5-5-5-5---3-5-5-5---3-5-5-5---
E -------------------------------
B -------------------------------
Gb----------.---------.----------
Db--3-5-5-5-5---3-5-5-5---5-3----
Outro
E -------------------------------
B -------------------------------
Gb-------------------------------
Db--3-5-5-3-5--3-5--3-5-3-6-6-6--
E ------------------
B ------------------
Gb---------------.--
Db--3-5-5-3-5--3-5--




Ваше мнение



Капча