this is a cool song. it's from WWE chris jericho desire video
artist: saliva
song: king of my world
album: WWE anthology
tabbed by: max deuble
tuning: dropped d I think (EBGDAD)
INTRO & INTERLUDE
E------------------------------------------------------
B-------------------------------------------------
G-----------------------------3-3-----------------------
D--3-0--3-0--3h0-5--3-0--3-0--X-X--2nd time ending is ----5-5-5------------
A--3-0--3-0--3h0-5--3-0--3-0--5-5-------------------------5-5-5------------
D--3-0--3-0--3h0-5--3-0--3-0------------------------------5-5-5-----------
E-----------------------------------------------
B--------------------------------------------------
G---5~-4--2-h4-1---17~-16-14-14h16p14-13-----x 1 time-----
D------------------------------------------------------
A----------------------------------------------------------
D------------------------------------------------------------
VERSE (BASS GUITAR)
G------------------------------
D------------------------------- repeat as much as needed
A------------------------------- just the same as intro
D--3-0--3-0------3-0--3-0------
thats all i have done so far i will finish as soon as possible
if you have any comments, corrections, or queries, then dont
hesitate to email me
[email protected]




Ваше мнение



Капча