Saliva
Greater Than / Less Than
By David Richardson
Drop D tuning, down 1/2 step
(low to high) Db-Ab-Db-Gb-Bb-Eb
Intro

(Guitar effects) 7 sec Riff A
|------------------------|-------------|----------------------
|------------------------|-------------|-----3---------3------
|------------------------|-------------|--2---------2----2----
|------------------------|-------------|----------------------
|------------------------|-------------|----------------------
|------------------------|----------0--|---------0------------
|-------------------------------------------------------------
|--------3---------3--------------3-----------3-------------3-
|-----2---------2----2---------1-----------1----1--------0----
|-------------------------------------------------------------
|-------------------------------------------------------------
|-3----------3-------------2-----------2-------------1--------
|------------------|
|--------3---------|
|-----0------------|
|------------------|
|------------------|
|-1------------0---|
Verse
Gtr.1 w/Riff A (4 times)
1. Be what you wanna be, see what you wanna see; you’re going to
anyway
Take what you need from me. All that you’ll ever be is something
so crazy
And you can find another side to be on if you wish you can. Or you
can choose the other way
Rhy.Fill 1 End Rhy.Fill 1
Gtrs.2&3(dist)
P.M. - - - - - - - - - - - - - - - - - - -|
|-----------------------------|---------------------------------|
|-----------------------------|---------------------------------|
|-----------------------------|---------------------------------|
|-----------------------------|------------------------------0--|
|-2---2---2---2---2---2---1---|--1---1---1---1---1---1---1---0--|
|-2---2---2---2---2---2---1---|--1---1---1---1---1---1---1---0--|
‘cause it_____ is right___ there in___ your hands
Chorus
Rhy.Fig.1
Gtr.1 w/Riff A (2 times)
|---------------------------------------------------------------
|---------------------------------------------------------------
|---------------------------------------------------------------
|-0---0-----0---0---2---3---3---3--------3---5---3---2----------
|-0---0-----0---0---2---3---3---3--------3---5---3---2----------
|-0---0-----0---0---2---3---3---3--------3---5---3---2----------
And you can mistake it for an-y-thing that you want ____
End Rhy.Fig.1
|---------------------------------------------------------------
|---------------------------------------------------------------
|---------------------------------------------------------------
|-2---2------2---3---2---1-------1---1-----1---1---1---0--------
|-2---2------2---3---2---1-------1---1-----1---1---1---0--------
|-2---2------2---3---2---1-------1---1-----1---1---1---0--------
____________________________
|---------------------------------------------------------------
|---------------------------------------------------------------
|---------------------------------------------------------------
|-(0)---0---0------0---0---2---3----3---3-----3---5---3---2-----
|-(0)---0---0------0---0---2---3----3---3-----3---5---3---2-----
|-(0)---0---0------0---0---2---3----3---3-----3---5---3---2-----
and you can e – rase it with ev–‘ry–thing that you’re on ___
slight P.M. - - - - - - - - -|
|--------------------------------------------------------|
|--------------------------------------------------------|
|--------------------------------------------------------|
|-2---2-----2---3---2---1---------------------------0----|
|-2---2-----2---3---2---1---1---1---1---1---1---1---0----|
|-2---2-----2---3---2---1---1---1---1---1---1---1---0----|
________________________________________
Verse
Gtr.1 w/Riff A (2 times) Gtr.2
2. You’re so lazy, you’re so crazy,

|-------------------------------------------------------------
|-------------------------------------------------------------
|-------------------------------------------------------------
|-----------------------------------------------------7-------
|-----------------------------------------------------5-------
|-----------------------------------------------------0-------
you got me crazy in my head
Gtr.3 w/Rhy.Fill 1
|-------------------------------------------------------------
|-------------------------------------------------------------
|-------------------------------------------------------------
|----------------------------------------------------------0--
|----------------------------------------------------------0--
|----------------------------------------------------------0--
what you’re wasting is what you’re chasing and it’s right
there in your hands

Chorus
Gtrs. 1,2 & 3: w/Riff A & Rhy.Fig.1 (4 times)
And you can mistake it for anything that you want
and you can erase it with everything that you’re on
cause you’re greater than but less than what you are
cause you’re greater than but less than you come from
Gtr.5 (dist) Guitar Solo
Gtrs.1,2&3:w/Riff A & Rhy.Fig 1 (1 3/4 times)
2nd time.Gtrs.1,2&3:w/RiffA&Rhy.Fig 1 (3 3/4 times)
* w/octaver P.M. P.M.
|-------------|-------------------------------------------------
|-------------|-------------------------------------------------
|-------------|-------------------------------------------------
|-------------|--------------------------------------------6----
|-------------|--5---0---3/5---5---5-----5---0---3/5---8--------
|----------0--|-------------------------------------------------
Gtr.4 (dist)
*w/octaver P.M. P.M.
|-------------|-------------------------------------------------
|-------------|-------------------------------------------------
|-------------|-------------------------------------------------
|-------------|-------------------------------------------------
|-------------|--5---0---3/5---5---5-----5---0---3/5---8---7----
|----------0--|-------------------------------------------------
*Set for one octave above
P.M.
|---------------------------------------------------------------
|---------------------------------------------------------------
|---------------------------------------------------------------
|-(6)---6b(1/2)r(6)--5---5b(1/2)r(5)--4-------------------------
|------------------------------------------5---0—--3/5---5---5--
|---------------------------------------------------------------
P.M.
|---------------------------------------------------------------
|---------------------------------------------------------------
|---------------------------------------------------------------
|---------------------------------------------------------------
|-(7)---7b(1/2)r(7)--6---6b(1/2)r(6)-------5---0---3/5---5---5--
|-------------------------------------0-------------------------
P.M. octaver off
|---------------------------------------------------------------
|--------------------------------------------------8b(1 1/2)~---
|---------------------------------------------------------------
|------------------------6--------6b(1/2)r(6)-5-----------------
|-(5)--5---0---3/5---8------------------------------------------
|---------------------------------------------------------------
P.M.
|---------------------------------------------------------------
|---------------------------------------------------------------
|---------------------------------------------------------------
|---------------------------------------------------------------
|-(6)--5---0---3/5---8---7--------7b(1/2)r(7)-6-----------------
|---------------------------------------------------------------
Bridge
Rhy.Fig.2
Rhy.Fig.2A
Gtrs.4&5 tacet
Gtrs.2&3
|---------------------------------------------------------------
|---------------------------------------------------------------
|---------------------------------------------------------------
|-8--8--8--8--8--8--8--8--8--8--8--8--8--8--5-------------------
|-8--8--8--8--8--8--8--8--8--8--8--8--8--8--5-------------------
|-8—-8--8--8--8--8--8--8--8--8--8--8--8--8--5-------------------
Oh_______no,____ oh_______ no,____
|---------------------------------------------------------------
|---------------------------------------------------------------
|---------------------------------------------------------------
|-5--5--5--5--5--5--5--5--5--5--5--5--5--5--8-------------------
|-5--5--5--5--5--5--5--5--5--5--5--5--5--5--8-------------------
|-5--5--5--5--5--5--5--5--5--5--5--5--5--5--8-------------------
Oh______________ no,___no, no,_
Gtrs.1,2&3:w/Rhy.Figs.2&2A(1 1/2 times)
_____ Oh______ no,____ oh_______no,____ oh___
Gtrs.2&3
|---------------------------------------------------------------
|---------------------------------------------------------------
|---------------------------------------------------------------
|-(5)--5--5--5--5--5--5--5--5--5--5--5--5—-5—-8-----------------
|-(5)--5--5--5--5--5--5--5--5--5--5--5--5—-5—-8-----------------
|-(5)--5--5--5--5--5--5--5--5--5--5--5--5—-5—-8-----------------
____ oh____________ no,____ no, no,________
__yeah Time__ is on____ her knees,_____
|---------------------------------------------------------------
|---------------------------------------------------------------
|---------------------------------------------------------------
|-8--8--8--8--8--8--8--8--8--8--8--8--8—-8—-7-------------------
|-8--8--8--8--8--8--8--8--8--8--8--8--8—-8—-7-------------------
|-8--8--8--8--8--8--8--8--8--8--8--8--8—-8—-7-------------------
Oh________ no_____ oh________ no___________
Yeah,yeah, Yeah,yeah,__ yeah,__
|---------------------------------------------------------------
|---------------------------------------------------------------
|---------------------------------------------------------------
|-7--7--7--7--7--7--7--7--7--7--7--7--7—-7—-0-------------------
|-7--7--7--7--7--7--7--7--7--7--7--7--7—-7—-0-------------------
|-7--7--7--7--7--7--7--7--7--7--7--7--7—-7—-0-------------------
______________________
yeah,yeah yeah__ yeah,__ yeah yeah,__ yeah____
P.M. P.M.
|----------------------------------------------------------------
|----------------------------------------------------------------
|----------------------------------------------------------------
|-(5)-------------------------------------------6--6b(1/2)r(6)-5-
|------12/5--0---3---5---5--12/5--0---3---5--8-------------------
|----------------------------------------------------------------
P.M. P.M.
|----------------------------------------------------------------
|----------------------------------------------------------------
|----------------------------------------------------------------
|-(5)------------------------------------------------------------
|------12/5--0---3---5---5--12/5--0---3---5--8--7—-7b(1/2)r(7)-6-
|----------------------------------------------------------------
P.M. P.M.
|----------------------------------------------------------------
|----------------------------------------------------------------
|----------------------------------------------------------------
|-(5)-------------------------------------------6--6b(1/2)r(6)-5-
|------12/5--0---3---5---5--12/5--0---3---5--8-------------------
|----------------------------------------------------------------
P.M. P.M.
|----------------------------------------------------------------
|----------------------------------------------------------------
|----------------------------------------------------------------
|-(5)------------------------------------------------------------
|-----12/5--0--3--5---5--12/5--0---3--5--8--7—-7b(1/2)r(7)-6-----
|------------------------------------------------------------(1)-




Ваше мнение



Капча