-------------------------------------------------------------------------------
DOPERIDE - Saliva
-------------------------------------------------------------------------------

By: Conrad ([email protected])

INTRO (X4)
e|---------------------------------------------------------------------------|
B|---------------------------------------------------------------------------|
G|---------------------------------------------------------------------------|
D|---------------------------------------------------------------------------|
A|---------------------------------------------------------------------------|
E|-0--0--2^--0h2p0--3^--3^---------------------------------------------------|

(X4)
e|---------------------------------------------------------------------------|
B|---------------------------------------------------------------------------|
G|---------------------------------------------------------------------------|
D|-2--2--4^--2h4p2--5^--5^---------------------------------------------------|
A|-2--2--4^--2h4p2--5^--5^---------------------------------------------------|
E|-0--0--2^--0h2p0--3^--3^---------------------------------------------------|

After that, I'm not too sure. I'm stil trying to figure out the verse, but there's the
main parts. Play with heavy distortion and a very bassy amp. It may not sound good, to
you, but I have the setup. Anyways, enjoy.




Ваше мнение



Капча