-------------------------------------------------------------------------------
Click Click Boom - Saliva
-------------------------------------------------------------------------------

By: ElStink
Dropped – D down half a step (D#,A#,F#,C#,G#,C#)

Main Riff

e|---------------------------------------------------------------------------|
B|---------------------------------------------------------------------------|
G|---------------------------------------------------------------------------|
D|-12-10-12-10--5-5-5-5-3-3-5--12-10-12-10-----------------------------------|
A|-12-10-12-10--5-5-5-5-3-3-5--12-10-12-10-----------------------------------|
E|-12-10-12-10--5-5-5-5-3-3-5--12-10-12-10-----------------------------------|

Verse Riff
Heavy PM------->
e|---------------------------------------------------------------------------|
B|---------------------------------------------------------------------------|
G|----------H-P--------------------------------------------------------------|
D|-0-1-1-3-3-5-3-------------------------------------------------------------|
A|-0-1-1-3-3-5-3-------------------------------------------------------------|
E|-0-1-1-3-3-5-3-------------------------------------------------------------|

Verse Riff
(…I seek, I find) W/O PM
e|---------------------------------------------------------------------------|
B|---------------------------------------------------------------------------|
G|----------H-P--------------------------------------------------------------|
D|-0-1-1-3-3-5-3-------------------------------------------------------------|
A|-0-1-1-3-3-5-3-------------------------------------------------------------|
E|-0-1-1-3-3-5-3-------------------------------------------------------------|

Bridge
(…It’s all inside-a me)
e|---------------------------------------------------------------------------|
B|---------------------------------------------------------------------------|
G|---------------------------------------------------------------------------|
D|-12---7---9---5------------------------------------------------------------|
A|-12---7---9---5------------------------------------------------------------|
E|-12---7---9---5------------------------------------------------------------|

That’s more or less the whole song.at least how I play it. Any comments or
corrections welcome, ElStink.

===============================================================================




Ваше мнение



Капча