Tabbed by chico3473

Tunned down a half step
Eb Ab Db Gb Bb Eb

Opening riff, simular to this, same chords

Em G5 D5 A5
e-----------------------------------------
B-----------------------------------------
G------------------------7----------------
D------2--------5------7---7------7-------
A----2---2----5---5--5----------7---7-----
E--0--------3-----------------5-----------

Pre Chorus (palm mute)
Em G5 A5 C5 D5
e--------------------------------------
B--------------------------------------
G---------------------------5-5-/-7-7-7
D--2-2-2--5-5-5--7-7-7------5-5-/-7-7-7
A--2-2-2--5-5-5--7-7-7------3-3-/-5-5-5
E--0-0-0--3-3-3--5-5-5-----------------
Always... alyways ..... I just can't live without you

Chorus
Em G5 D5 A5
e----------------------------------------
B----------------------------------------
G--------------------7-7-----------------
D--2-2-------5-5-----7-7------7-7-7-7-7--
A--2-2-------5-5-----5-5------7-7-7-7-7--
E--0-0-------3-3--------------5-5-5-5-5--
I Love you ,I hate you, I just can't live without you ....

(before 2nd verse)
Em
e-------------------------
B---------6---------6-----
G-----------9----------9-- (a few times before the verse)
D------9----------9-------
A----7---------7----------
E-------------------------

Bridge/ guitar flick (after chorus 2:04 into song around there)
Em G5 D5 E5 D5 E5 F5
e-----------------------------------------
B-----------------------------------------
G--------------7-/-9---7-/-9--10-10-------
D--2----5------7-/-9---7-/-9--10-10-------
A--2----5------5-/-7---5-/-7--8--8--------
E--0----3---------------------------------

The flick is some bend on a eb note

The strumming patterns very through the song. enjoy




Ваше мнение



Капча