Song: After Me
Artist: Saliva
Album: Every Six Seconds
Tabbed By: Mike ([email protected])

Use drop D tuning

E |----------------------------|
B |----------------------------|
G |----------------------------|
D |----------------------------|
A |-4-4-2-2-2-2-5-5-5-5-4-4-4-4|
D |4-4-------------------------|
-------------PM---------------

E |-----------------------------------|
B |-----------------------------------|
G |-----------------------------------| use distortion
D |--6---6-4-4-4-4-7-7-7-7-6-6/76/76|
A |4-4-4-4-2-2-2-2-5-5-5-5-4-4/54/54|
E |4---4------------------------------|

that is all I know right now but I will try
to figure out the rest.




Ваше мнение



Капча