Tabbed by mike and adam from sunderland, mike mainly tabbed this, we liked the
solo so this is what this is mainly for but we did the main riff as well.
verse and chorus riff:
e--------------------------------------------------------------
b--------------------------------------------------------------
g--------------------------------------------------------------
d------4-------------------------------------------------------
a----4-----7--4--7---------------------------------------------
e--------------------------------------------------------------
repeat a few times then:
e--------------------------------------------------------------
b--------------------------------------------------------------
g--------------------------------------------------------------
d------4------------4------------------------------------------
a----4-----7--4--7---------------------------------------------
e--------------------------------------------------------------
solo:
e--------------------------------------------------------------
b----------11h12p11p9h11---------------------------------------
g-------------------------------------------------------------- x8
d--------------------------------------------------------------
a--------------------------------------------------------------
e--------------------------------------------------------------
e--------------------------------------------------------------
b----------------------12----11--------------------------------
g------13--13--11--13------------13--12/13---12/13----12-------
d--------------------------------------------------------------
a--------------------------------------------------------------
e--------------------------------------------------------------
e--------------------------------------------------------------
b-----14-12---------------------12-14--------------------------
g-----------13-12-11----11--13---------------------------------
d--------------------14----------------------------------------
a--------------------------------------------------------------
e--------------------------------------------------------------
e---------12h14p12------14-ld12--------------------------------
b-------------------14-----------------------------------------
g--------------------------------------------------------------
d--------------------------------------------------------------
a--------------------------------------------------------------
e--------------------------------------------------------------
at the end there are some vibrato notes but they are just improvised
so just mess around with it.




Ваше мнение



Капча