Song:No Ordinary Love
Artist:Sade
Album:Love Deluxe
Tabber:T4-TURBO

Riff:
g:---------------------------------|
d:------------------------2--------|
a:2----2-0---2-5---2--222---0---2-5|
e:---------1------------------1----|

Var-e-a-shen:
g:---------------------|
d:----------2----------|
a:2-0-2-0-2---2-0---2-5|
e:----------------1----|
^Only play every once in a while

and just repeat the riff through the whole song
just tro in the other part whenever you to cause its per-t-much
impossible to time......
...............
...............
...............
...............
...............Enjoy!!!




Ваше мнение



Капча