From: Marko Borosic
E-mail: [email protected]
Artist: Sade
Song: Jezebel
Chord used:
Dm (000231)
C/Dm (x3x231)
Gm (355333)
C (335553)
A# (688766)
A (577655)
Dm C/Dm Gm A# A
E--------1----1---------1---1---------------------------------------------------------------|
H------3-3----3-------3-3---3---------3---3-------------------------------------------------|
G----2------2-------2-----2-----------3---3---------7--------6------------------------------|
D--0--------------------------------5---5---------8--------7--------X 2---------------------|
A-----------------3---------------5-------------8--------7----------------------------------|
E-------------------------------3-------------6--------5------------------------------------|
A# C Dm Dm Gm
E-----------------------3----3-----------1---1----------1---1-------------------------------|
H---------6---6---------5----5--------3--3---3-------3--3---3----------3---3----------------|
G---------7---7-------5----5--------2------2-------2------2------------3---3----------------|
D------8----8-------5-------------0--------------0-------------------5---5------------------|
A----8------------3------------------------------------------------5------------------------|
E--6-------------------------------------------------------------3--------------------------|
C A# A
E--------3---3------------------------------------------------------------------------------|
H--------5---5----------6----6---------5----------------------------------------------------|
G------5---5------------7----7---------6----------ring--------------------------------------|
D----5----------------8----8---------7------------------------------------------------------|
A--3----------------8--------------7--------------------------------------------------------|
E-----------------6--------------5----------------------------------------------------------|
Dm C/Dm Gm A# A
jezebel wasn't born with a silver spoon in her mouth
Dm C/Dm Gm A# A
she probably had less than every one of us
A# C Dm
but when she knew how to walk she knew
Dm
how to bring the house down
Gm C
can't blame her for her beauty
A# A
she wins with her hands down
(and so on and on, also during the saxophon solo)
jezebel, what a belle
looks like a princess in her new dress
how did you get that?
do you really want to know she said
it would seem she's on her way
it's more, more than just a dream
she put on her stockings and shoes
had nothing to lose - she said it was worth it
reach for the top
and the sun is gonna shine
every winter was a war she said
i want to get what's mine
jezebel, jezebel
won't try to deny where she came from
you can see it in her pride
and the raven in her eyes
try show her a better way
she'll say you don't know what you've been missing
and by the time she blinks you know she won't be listening
reach for the top she said
and the sun is gonna shine
every winter was a war she said
i want to get what's mine




Ваше мнение



Капча