its awesome that peole are putting up s club my fav is hannah
standard tuning
guitar 1 w/ some wah
------------------------------------------------------------------------------------------|
-------------------------------------------8----------------------------------------------|
--------------------------------7----x-----7----------------------------------------------|
-7--x--7--x--7--7--x--x---7h-9-------x-----6----------------------------------------------|
-------------------------------------x-----7----------------------------------------------|
------------------------------------------------------------------------------------------|
{ x7? )
G2 tons of wah wah
----------------------------------------------------------------------------|
----------------------------------------------------------------------------|
---5b-----------------------------------------------------------------------|
--------7p--5---------------------------------------------------------------|
----------------------------------------------------------------------------|
----------------------------------------------------------------------------|
(repeat some times)
(____)
thats it
questions,comments email me- [email protected]




Ваше мнение



Капча