WITH FENDER STRAT AND COMPRESSOR + SMALL AUTO WAH

INTRO / VERSE
---------------------------------------------------------------------|
---------------------------------------------------------------------|
----------2---X--X----4---4---2---4---2------------------------------|
--2-/-4--------------------------------------------------------------|
---------------------------------------------------------------------|
---------------------------------------------------------------------|

CHORUS / OUTRO
---------------------------------------------------------------------|
---------------------------------------------------------------------|
------7---X---7---X---7-----7---X---X---7---X------------------------|
---------------------------------------------------------------------|
------5---X---5---X---5-----5---X---X---5---X------------------------|
---------------------------------------------------------------------|




Ваше мнение



Капча