#----------------------------------PLEASE NOTE--------------------------------#
#This file is the author's own work and represents their interpretation of the#
#song. You may only use this file for private study, scholarship, or research.#
#-----------------------------------------------------------------------------#
Title : Luminol
Artist : Ryan Adams
Album : Rock N Roll
Transcribed by : Ferry Falkenburg ([email protected])
Notes : -
#-----------------------------------------------------------------------------#
Ryan Adams - Luminol
--------------------
Standard tuning.
Chords used:
E B(add E) C# D A G Gm Bb C B
e --0-- --0-- --4-- --5-- --5-- --3-- --3-- --1-- --0-- --7--
B --0-- --0-- --6-- --7-- --5-- --3-- --3-- --3-- --1-- --7--
G --9-- --8-- --6-- --7-- --7-- --4-- --3-- --3-- --0-- --8--
D --9-- --9-- --6-- --7-- --8-- --5-- --5-- --3-- --2-- --9--
A --7-- --9-- --4-- --5-- --8-- --5-- --5-- --1-- --3-- --9--
E --0-- --7-- ----- ----- --5-- --3-- --3-- ----- ----- --7--
Intro:
Ab5 Ab5/E C#m B5 E5
e||---------------------------------------------------------------||
B||---------------------------------------------------------------||
G||---------------------------------------------------------------||
D||-6-6-6-6-6-6-6-6-6-6-6-6-6-6-6-6-9-9-9-9-9-9-9-9-9-9-9-9-------||
A||-6-6-6-6-6-6-6-6-6-6-6-6-4-4-4-4-9-9-9-9-9-9-9-9-9-9-9-9-9-9-9-||
E||-4-4-4-4-4-4-4-4-4-0-0-0-0-0-0-0-7-7-7-7-7-7-7-7-7-7-7-7-0-0-0-||
pm...........................................................
Play the intro riff during the verses.
Ab5 Ab5/E C#m B5
Nobody with no one to call
E5
And all this time
Ab5 Ab5/E C#m B5
Hot metal as her clothes dissolve
C#
Emergency lights
E B(add E) C#
It's genocide
E
It's suicide
Riff 1:
D / / / / / / / / A / / / / / G / B(add E) / / /

D A G B(add E)


Ваше мнение



Капча