You Bet Your Life By: Rush
================================
h e e e e e e e e e e e e e e e e e e e e e e e e e e e q e e e
+-----+-------------------+-----------------+-----------------+---------------+
|2:-R-|4:-----R-----------|-----R-----------|-----R-----------|-----R---------|
|4:---|4:-5-5---5-3-3-3-5-|-------------3---|-5-5---5-3-3-2-3-|---------------|
+-----+-------------------+-5-5---5-3-5---5-+-----------------+-0-0---0-2-3-5-+
e e e e e e e s s e e e e e e e e e e e e e e e e e e e q e e e
+-------------------+-----------------+-----------------+---------------+
|-----R-------R-----|-----------------|-----R-----------|-----R---------|
|-5-5---5-3-3---3-5-|-------------3---|-5-5---5-3-3-2-3-|---------------|
+-------------------+-5-5-5-5-3-5---5-+-----------------+-0-0---0-2-3-5-+
e e e e e e e e e e e e e e e e e e e e e e e e e e e q e e e
+-----------------+-----------------+-----------------+---------------+
|-----R-------R---|-----R-----------|-----R-----------|-----R---------|
|-5-5---5-3-3---3-|-------------3---|-5-5---5-3-3-2-3-|---------------|
+-----------------+-5-5---5-3-5---5-+-----------------+-0-0---0-2-3-5-+
e e e e e e e e e e e e e e e e e e e e e e e e e q q e e e
+-----------------+-----------------+-----------------+-------------+
|-----R-------R---|---R-------------|-----R-----------|---R---------|
|-5-5---5-3-3---3-|-------------3---|-5-5---5-3-3-2-3-|-------------|
+-----------------+-5---5-5-3-5---5-+-----------------+-3---3-3-2-0-+
e e e e e e e e e e e e e e e e e e e e e e e e e e e q e e e
+-----------------+-----------------+-----------------+---------------+
|-----R-------R---|-----------------|-----R-----------|-----R---------|
|-5-5---5-3-3---3-|-------------3---|-5-5---5-3-3-2-3-|---------------|
+-----------------+-5-5-5-5-3-5---5-+-----------------+-0-0---0-2-3-5-+
e e e e e e e e e e e e e e e e e e e e e e e e e e e e e q e
+-----------------+-----------------+-----------------+---------------+
|-----R-------R---|---R-------------|-----R-----------|-5-5-R-3-R-5-3-|
|-5-5---5-3-3---3-|-------------3---|-5-5---5-3-3-2---|---------------|
+-----------------+-5---5-5-3-5---5-+---------------3-+---------------+
e s s e e e e q e e e e e q e e e e e e e e e e e e e e q e
+-----------------+---------------+-----------------+---------------+
|-----------------|-5-5-R-3-R-5-3-|---------R-------|-5-5-R-3-R-5-3-|
|-3-3-3-3-3-5-5-3-|---------------|-3-3-3-5---5-3-3-|---------------|
+-----------------+---------------+-----------------+---------------+
e e e e e e q w +H q e e e e e e e e e e e e e e e e
+---------------+---+-------+-----------------+-----------------+
|-------R-------|---|-------|-----R-------R---|-----R-----------|
|-3-3-3---3-5-5-|---|----10-|-5-5---5-3-3---3-|-------------3---|
+---------------+-2-+-------+-----------------+-5-5---5-3-5---5-+
e e e e e e e e e e e q e e e e e e e e e e e e e e e e e e e
+-----------------+---------------+-----------------+-----------------+
|-----R-------R---|-----R---------|-----R-----------|-----------------|
|-5-5---5-3-3---3-|---------------|-5-5---5-3-3-3-3-|-------------3---|
+-----------------+-0-0---0-2-3-5-+-----------------+-5-5-5-5-3-5---5-+
e e e e e e e e e e e q e e e e e e e e e e e Q e e e e e
+-----------------+---------------+-----------------+-------------+
|-----R-----------|---R-----------|-----R-------R---|-------------|
|-5-5---5-3-3-2-3-|---------------|-5-5---5-3-3---3-|---------3---|
+-----------------+-3---2-3-3-2-0-+-----------------+-5-5-3-5---5-+
e e e e e e e e e e e q e e e e e e e e e e e q e e e e e e
+-----------------+---------------+-----------------+---------------+
|-----R-----------|-----R---------|-----R-------R---|---------------|
|-5-5---5-3-3-2-3-|---------------|-5-5---5-3-3---3-|-----------3---|
+-----------------+-0-0---0-2-3-5-+-----------------+-5-5-5-3-5---5-+
e e e e e e e e e e e e e q e e s s e e e e q e e e e e q e
+-----------------+---------------+-----------------+---------------+
|-----R-----------|-5-5-R-3-R-5-3-|-----------------|-5-5-R-3-R-5-3-|
|-5-5---5-3-3-2---|---------------|-3-3-3-3-3-5-5-3-|---------------|
+---------------3-+---------------+-----------------+---------------+
e e e e e e e e e e e e e q e e s s q e e q w +Q e e e e e
+-----------------+---------------+---------------+---+--------------+
|---------R-------|-5-5-R-3-R-5-3-|---------------|---|--------------|
|-3-3-4-5---5-3-3-|---------------|-3-3-3-3-3-4-5-|---|--------------|
+-----------------+---------------+---------------+-2-+----2-2-2-2-2-+
e e e e e e e e e e e e e e e e e e e e e e e e e e e e e e e e
+-----------------+-----------------+-----------------+-----------------+
|-----R-------R---|-----5-----------|-----R-------R---|-----R-----------|
|-----------------|-----------------|-----------------|-----------------|
+-3-3---3-3-3---3-+-3-3---3-3-3-3-3-+-5-5---5-5-5---5-+-5-5---5-5-5-7-5-+
e e e e e e e e e e e e e e e e e e e e e e e e e e e e e e e e
+-----------------+-----------------+-----------------+-----------------+
|-----R-----------|-----------------|-----R-------R---|-----R-----------|
|-----------------|-----------------|-----------------|-----------------|
+-0-0---0-0-0-0-0-+-0-0-0-0-0-0-0-0-+-2-2---2-2-2---2-+-2-2---2-2-2-0-0-+
e e e e e e e e e e e e e e e e e e e e e e e e e e e e e e e e
+-----------------+-----------------+-----------------+-----------------+
|-----5-5-----R---|-----R-----------|-----R-------R---|-----R-----------|
|-----------------|-----------------|-----------------|-----------------|
+-3-3-----3-3---3-+-3-3---3-3-3-2-0-+-5-5---5-5-5---5-+-5-5---5-5-5-7-5-+
e e e e e e e e e e e e e e e e e e e e e e e e e e e e e e e e
+-----------------+-----------------+-----------------+-----------------+
|-----2-------2---|-----2-2-----2---|-----R-------R---|-----R-----------|
|-----------------|-----------------|-----------------|-----------------|
+-0-0---0-0-0---0-+-0-0-----0-0---0-+-2-2---2-2-2---2-+-2-2---2-2-2-0-2-+
e e e e e e e e e e e e e e e e e e e e e e e s s e e e q e e e
+-----------------+-----------------+-------------------+---------------+
|-----R-------R---|-----R-----------|-----R-------R-----|---------------|
|-5-5---5-3-3---3-|-------------3---|-5-5---5-3-3---3-5-|---------------|
+-----------------+-5-5---5-3-5---5-+-------------------+-0-0-0-0-2-3-5-+
e e e e e e e e q e e e e e e e e e e e e e s s Q q e e e
+-----------------+---------------+-------------------+-----------+
|-----R-------R---|---------------|-----R-------------|-----------|
|-5-5---5-3-3---3-|-----------3---|-5-5---5-3-3-2-3-5-|-----------|
+-----------------+-5-5-5-3-5---5-+-------------------+-0-0-0-3-5-+
e e e e e e e e e e e e e e e e e e e e e e e e e e e q e e e
+-----------------+-----------------+-----------------+---------------+
|-----R-------R---|-----------------|-----R-----------|-----R---------|
|-5-5---5-3-3---3-|-------------3---|-5-5---5-3-3-2-3-|---------------|
+-----------------+-5-5-5-5-3-5---5-+-----------------+-0-0---0-2-3-5-+
e e e e e e e e q e e e e e e e e e e e e e e e e e q e e e
+-----------------+---------------+-----------------+---------------+
|-----R-------R---|---------------|-----R-----------|---5-----------|
|-5-5---5-3-3---3-|-----------3---|-5-5---5-3-3-2-3-|-----5---------|
+-----------------+-5-5-5-3-5---5-+-----------------+-3-----3-3-2-0-+
e e e e e e e e q e e e e e e q q e e e e e e e e e e s E
+-----------------+---------------+-------------+-----------------+
|-----R-------R---|---------------|-------------|-----R-----------|
|-5-5---5-3-3---3-|-----------3---|-5-5-3-3-2-3-|-----------------|
+-----------------+-5-5-5-3-5---5-+-------------+-0-0---0-0-0-0-3-+
e e e e e e e s s q e e e e e e e e e e e e e e e e e e e q e
+-------------------+---------------+-----------------+---------------+
|-----R-------R-----|---------------|-----R-----------|-5-5-R-3-R-5-3-|
|-5-5---5-3-3---3-5-|-----------3---|-5-5---5-3-3-2-5-|---------------|
+-------------------+-5-5-5-3-5---5-+-----------------+---------------+
e s s e e e e q e e e e e q e e e e e e e e e e e e e e q e
+-----------------+---------------+-----------------+---------------+
|-----------------|-5-5-R-3-R-5-3-|---------R-------|-5-5-R-3-R-5-3-|
|-3-3-3-3-3-5-5-3-|---------------|-3-3-3-5---5-3---|---------------|
+-----------------+---------------+---------------5-+---------------+
e s s q e e q w +w e e e e e e e e e e e e e e e e e e e e e e e e
+---------------+---+----+-----------------+-----------------+-----------------+
|---------------|---|----|-----R---R---R---|-R---R---R-------|-----R---R---R---|
|-3-3-3-3-3-4-5-|---|----|-----------------|-----------------|-----------------|
+---------------+-2-+----+-3-3---3---3---3-+---3---3---3-2-0-+-5-5---5---5---5-+
e e e e e e e e e e e e e e e e e e e e e e e e e e e e e e e e
+-----------------+-----------------+-----------------+-----------------+
|-R---R---R-------|-----R---R---R---|-R---R---R-------|-----R---R---R---|
|-----------------|-----------------|-----------------|-----------------|
+---5---5---5-7-5-+-0-0---0---0---0-+---0---0---0-0-0-+-2-2---2---2---2-+
e e e e e e e e e e e e e e e e e e e e e e e e e e e e e e e e
+-----------------+-----------------+-----------------+-----------------+
|-R---R-----------|-----R-------R---|-----------------|-----R---R---R---|
|-----------------|-----------------|-----------------|-----------------|
+---2---2-2-2-0-2-+-3-3---3-3-3---3-+-3-3-3-3-3-3-2-0-+-5-5---5---5---5-+
e e e e e e e e e e e e e e e e e e e e e e e e e e e e e e e e
+-----------------+-----------------+-----------------+-----------------+
|-----R---R-------|-----R-------R---|-----R-----2-----|-----R---R---R---|
|-----------------|-----------------|-----------------|-----------------|
+-5-5---5---5-7-5-+-0-0---0-0-0---0-+-0-0---0-0---0-0-+-2-2---2---2---2-+
e e e e e e e e e e e e e e e e e e e e e e e e e e e e e e e e
+-----------------+-----------------+-----------------+-----------------+
|-----R-----------|-----R-------R---|-----R-----------|-----R-------R---|
|-----------------|-----------------|-----------------|-----------------|
+-2-2---2-2-2-0-2-+-3-3---3-3-3---3-+-3-3---3-3-3-2-0-+-5-5---5-5-5---5-+
e e e e e e e e e e e e e e e e e e e e e e e e e e e e e e e e
+-----------------+-----------------+-----------------+-----------------+
|-----R-----------|-----2-------2---|-----2-----------|-----R-----------|
|-----------------|-----------------|-----------------|-----------------|
+-5-5---5-7-7-5-7-+-0-0---0-0-0---0-+-0-0---0-0-0-0-0-+-2-2---2-2-2-2-0-+
e e e q e e e e e e e e e e e e e e q e e e e e e e e e e e
+---------------+-----------------+---------------+-----------------+
|-----R---------|-----R-------R---|-----R---------|-----R---R---R---|
|---------------|-----------------|---------------|-----------------|
+-2-2---2-2-0-2-+-3-3---3-3-3---3-+-3-3---3-3-2-0-+-5-5---5---5---5-+
e e e q e e e e e e e e e e e e e e e e e e e Q Q e e Q Q e e
+---------------+-----------------+-----------------+---------+---------+
|-----R---------|-----2-----------|-----2-----------|---------|---------|
|---------------|-----------------|-------------4-2-|---------|---------|
+-5-5---7-7-5-7-+-0-0---0-0-0-0-0-+-0-0---0-0-0-----+-2-2-2-1-+-2-2-0-2-+
e e e e e e e e e e e q e e e e e e e e e e e e e q e e e e
+-----------------+---------------+-----------------+---------------+
|-----R-------R---|-----R---------|-----R-------R---|-----R---------|
|-----------------|---------------|-----------------|---------------|
+-3-3---3-3-3---3-+-3-3---3-3-2-0-+-5-5---5-5-5---5-+-5-7---7-7-5-7-+
e e e e e e e e e e e e e e s s e e e e e e e e e e e e e e e e e
+-----------------+---------------1---+-----------------+-----------------+
|-----2-------4-2-|-----2-------4---4-|-----------------|-----R---R-------|
|-----------------|-------------------|-----------------|-----------------|
+-0-0---0-0-0-----+-0-0---0-0-0-------+-2-2-2-2-2-2-2-2-+-2-2---2---2-0-2-+
e e e q e e e e e e e e e e e e e e e e e e e e e e e e e q
+---------------+-----------------+-----------------+---------------+
|-----R-----R---|-----R---R-------|-----R-------R---|---------------|
|---------------|-----------------|-----------------|-------------5-|
+-3-3---3-3---3-+-3-3---3---3-2-0-+-5-5---5-5-5---5-+-5-5-7-7-5-5---+
e e e e e e e e e e e e e e e e q^q^q+h q^q^q+q q e e e e e e e e
+-----------------+-----------------+---------+-----------+-----------------+
|-----2-------2-4-|-----2-------4-2-|---------|---------4-|-----R-------R---|
|-----------------|-----------------|---------|-----------|-----------------|
+-0-0---0-0-0-----+-0-0---0-0-0-----+-2-2-2---+-2-2-2-----+-3-3---3-3-3---3-+
e e e e e e e e e e e e e e e e e e e e e e e e e e e e e e s s s s
+-----------------+-----------------+-----------------+---------------------+
|-----R-----------|-----R---R---R---|-----R-----------|-----2-------2-4-2---|
|-----------------|-----------------|-----------------|-------------------4-|
+-3-3---3-3-3-2-0-+-5-5---5---5---5-+-5-5---5-5-5-7-5-+-0-0---0-0-0---------+
e e e e e e s s s s Q Q q +e Q q e e e e e e e e e e e e e e e e e e
+---------------------+-------+------------+-----------------+-----------------+
|-----2-------2-4-2---|-------|------------|-----R---R---R---|-R---R-----------|
|-------------------4-|-------|------------|-----------------|-----------------|
+-0-0---0-0-0---------+-2-2-2-+----2-2-0-2-+-3-3---3---3---3-+---3---3-3-3-2-0-+
e e e e e e e e e e e e e e e e e e e e e e e e
+-----------------+-----------------+-----------------+
|-----R---R---R---|-----------------|-----2-------2---|
|-----------------|-----------------|-----------------|
+-5-5---5---5---5-+-7-7-5-5-7-7-5-7-+-0-0---0-0-0---0-+
==========================================================================
Created using the Bass Tab Creator
__ by Mario D'Alessio (motcid!marble!dalessio)
+|oo|+
+|oo|+ Notes: w = Whole h = Half q = Quarter
|| e = 8th s = 16th t = 32nd x = 64th
||
|| Capital durations are dotted notes
|| (equal to 1.5 times the duration value)
||
|| #
|| +----+ +----+
_ || _ |*--*+ = MEASURE |4:--| = TIME
_||_// |*--*+ REPEATS |4:--| SIGNATURES
| [] | +----+ (#=Num Repeats) +----+
| || |
/ [] + = TIE ^ = TRIPLET > = BEND
______/ H = HAMMER ON = SLIDE TO FRET R = Rest
P = PULL OFF X = SLIDE TO NOWHERE ~ = Trill




Ваше мнение



Капча