Submitted By: Will Dubois
Rush-Working Man
Main Riff (Played Several Times)
e|-----------------------------|
B|-----------------------------|
G|-1-1-1-1-------1-1-1-1-------|
D|-2-2-2-2--7----2-2-2-2--5-5s7|
A|-2-2-2-2--5-7--2-2-2-2--3-3s5|
E|------------5----------------|

Interlude/Chorus
e|---------------------------------|
B|---------------------------------|
G|---------------------------------|
D|-2-2-2-2-2--0-0-0-0-0------------|
A|--2-2-2-2-2--0-0-0-0-0---5-5-7-7-|
E|------------------------3-3-5-0--|

That's It except for the solo. I didn't include it because it's really hard to play.




Ваше мнение



Капча