Witch Hunt By: Rush
========================
w +w +w +w +w +w +w +w +w +w +w +w +w +w +w
+-----+----+----+----+----+----+----+----+----+----+----+----+----+----+----+
|4:-R-|----|----|----|----|----|----|----|----|----|----|----|----|----|----|
|4:---|----|----|----|----|----|----|----|----|----|----|----|----|----|----|
+-----+----+----+----+----+----+----+----+----+----+----+----+----+----+----+
+w +w +w +w +w +w +w +w +w +w +w +w +w +w +w
+----+----+----+----+----+----+----+----+----+----+----+----+----+----+----+
|----|----|----|----|----|----|----|----|----|----|----|----|----|----|----|
|----|----|----|----|----|----|----|----|----|----|----|----|----|----|----|
+----+----+----+----+----+----+----+----+----+----+----+----+----+----+----+
+w +w +w +w +w +w +w +h w +h Q e e e e e +w
+----+----+----+----+----+----+----+------+-----+------+---------------+----+
|----|----|----|----|----|----|----|2:----|4:---|2:----|4:-R---R---R---|----|
|----|----|----|----|----|----|----|4:----|4:-2-|4:----|4:-------------|----|
+----+----+----+----+----+----+----+------+-----+------+-----1---1---3-+----+
+w w +h Q e h +h +Q q e e e q e e h +H e e q e e h
+----+---+------+---------+------+--------------+---------+--------+---------+
|----|-R-|2:----|4:-----R-|2:----|4:--------R---|---R-----|----R---|---R-----|
|----|---|4:----|4:-2-2---|4:----|4:------------|-----1-1-|------5-|-5---3-3-|
+----+---+------+---------+------+------1-1---3-+-3-------+--------+---------+
+H e e q e e h +H e e q e e h +H e e q e e h +H e e q e e h
+--------+---------+--------+---------+--------+---------+--------+---------+
|----R---|---R-----|----R---|---R-----|----R---|---R-----|----R---|---R-----|
|--------|-----1-1-|------5-|-5---3-3-|--------|-----1-1-|------5-|-5---3-3-|
+------3-+-3-------+--------+---------+------3-+-3-------+--------+---------+
+H e e q e e h +H e e q e e h +H e e q e e h +H e e q e e h
+--------+---------+--------+---------+--------+---------+--------+---------+
|----R---|---R-----|----R---|---R-----|----R---|---R-----|----R---|---R-----|
|--------|-----1-1-|------5-|-5---3-3-|--------|-----1-1-|------5-|-5---3-3-|
+------3-+-3-------+--------+---------+------3-+-3-------+--------+---------+
+H e e q e e h +H e e q e e Q e Q e Q e Q e Q e Q e Q e
+--------+---------+--------+-----------+---------+---------+---------+
|----R---|---R-----|----R---|---R-------|---------|---------|---------|
|--------|-----1-1-|------5-|-5---3-3-3-|-3-3-3---|---1-1-1-|-1-1-1-5-|
+------3-+-3-------+--------+-----------+-------3-+-3-------+---------+
Q e Q e Q e Q e Q e Q e Q e Q e Q e Q e Q e Q e Q e Q e
+---------+---------+---------+---------+---------+---------+---------+
|---------|---------|---------|---------|---------|---------|---------|
|-5-3-3-3-|-3-3-3---|---1-1-1-|-1-1-1-5-|-5-3-3-3-|-3-3-3---|---------|
+---------+-------3-+-3-------+---------+---------+-------1-+-1-3-3-3-+
Q e Q e Q e Q e Q e Q e e e e q q e Q e Q e Q e Q e Q e Q e
+---------+---------+---------+-------------+---------+---------+---------+
|---------|---------|-------R-|-------------|---------|---------|---------|
|-------5-|-5-3-3-3-|-3-3-3---|-3-2-3-2-3---|-------1-|-1-1-1-1-|-1-5-5-3-|
+-3-3-3---+---------+---------+-----------1-+-1-3-3---+---------+---------+
Q e Q e e e e q q e e e e q e e e e e e q e s s e e e e q q e
+---------+-------------+---------------+-----------------+-------------+
|-------R-|-------------|-----------R---|-----------------|-------------|
|-3-3-3---|-3-2-3-2-5---|---------------|-------1---1-1---|-------------|
+---------+-----------1-+-3-1-3-1-3---1-+-3-1-3---3-----3-+-3-1-3-1-3-1-+
e e e q e s s e e e e q q e q q e e e q q e e e e q Q
+-----------------+-------------+-------+---------------+-----------+
|-----------------|-------------|2:---0-|4:-------------|-----------|
|-------1---1-1---|-------------|4:-----|4:-2-0-2-0-2-0-|-2-0-2-0-2-|
+-3-1-3---3-----3-+-3-1-3-1-3-1-+---3---+---------------+-----------+
e e e q e e e e e e q e e e e e e q e e e e e e q e e e q q
+---------------+---------------+---------------+---------------+-------+
|-------3-------|-----------R---|---------------|-----------R---|2:---0-|
|---------------|---------------|-------1---1---|---------------|4:-----|
+-1-1-1---1-1-1-+-3-1-3-1-3---1-+-3-1-3---3---3-+-3-1-3-1-3---1-+---3---+
e e e q q e e e e q q e e e e q e e e e e e q e s s e
+---------------+-------------+---------------+-----------------+
|4:-------------|-------------|-------3-------|-----------------|
|4:-2-0-2-0-2-0-|-2-0-2-0-2-2-|---------------|-----------1-1---|
+---------------+-------------+-1-1-1---1-1-1-+-3-1-3-1-3-----3-+
e e e q e e e e e e q e e e q q e e e q q e e e q
+---------------+---------------+-------+---------------+---------+
|-----------R---|---------------|2:---0-|4:-------------|2:-------|
|---------------|---------------|4:-----|4:-2-0-2-0-2-0-|4:-2-0-2-|
+-3-1-3-1-3---1-+-3-1-3-1-3-3-1-+---3---+---------------+---------+
e e e q q e Q e h+Q e Q e Q e h+Q e Q e e e e e Q e h
+---------------+-------+---------+---------+-------+-------------+-------+
|4:-------------|2:-----|4:-------|---------|-------|-------------|-------|
|4:-------------|4:---1-|4:-1---1-|-1-5-5-3-|-3---3-|-3-----------|---1-1-|
+---1-1-1-1-1-3-+---3---+---------+---------+-------+---1-1-1-1-3-+-3-----+
+Q e Q e Q e h +Q e h Q e Q e h+Q e Q e Q e w Q e e e e e
+----------+-------+--------+---------+-------+---------+---+-------------+
|----------|-------|--------|---------|-------|---------|---|-------------|
|----1-1-5-|-5-3-3-|----3-3-|-------1-|-1---1-|-1-5-5-3-|-3-|-3-----------|
+----------+-------+--------+-1-3-3---+-------+---------+---+---1-1-1-1-3-+
Q e h +Q e Q e Q e h +Q e Q e Q e Q e e e e q e q q e e Q e
+-------+----------+-------+----------+---------+------------12-+-10---------+
|-------|----------|-------|----------|---------|-------10-8----|----R-------|
|---1-1-|----1-1-5-|-5-3-3-|----3-3---|---------|---5-8---------|------5-5-3-|
+-3-----+----------+-------+--------1-+-1-3-3-6-+-6-------------+------------+
q^q^q^q^q^q^ s s q e Q e Q e h +Q e Q e Q e Q e Q e s s q e
+---5-7-8-7-5-+-5-7-5-------+-------+----------+---------+-------------+
|-------------|-------------|-------|----------|---------|-------------|
|-3-----------|-------------|---1-1-|----1-1-5-|-5-3-3-3-|-3-3-3-5-3---|
+-------------+-------1-1-3-+-3-----+----------+---------+-----------1-+
Q e Q e Q e Q e Q e Q e w +w +w +w +w
+---------+---------+---------+---+----+----+----+----+
|---------|-R-------|---------|---|----|----|----|----|
|-------1-|---1-1-1-|-1-5-5-3-|-3-|----|----|----|----|
+-1-3-3---+---------+---------+---+----+----+----+----+
==========================================================================
Created using the Bass Tab Creator
__ by Mario D'Alessio (motcid!marble!dalessio)
+|oo|+
+|oo|+ Notes: w = Whole h = Half q = Quarter
|| e = 8th s = 16th t = 32nd x = 64th
||
|| Capital durations are dotted notes
|| (equal to 1.5 times the duration value)
||
|| #
|| +----+ +----+
_ || _ |*--*+ = MEASURE |4:--| = TIME
_||_// |*--*+ REPEATS |4:--| SIGNATURES
| [] | +----+ (#=Num Repeats) +----+
| || |
/ [] + = TIE ^ = TRIPLET > = BEND
______/ H = HAMMER ON = SLIDE TO FRET R = Rest
P = PULL OFF X = SLIDE TO NOWHERE ~ = Trill




Ваше мнение



Капча