War Paint By: Rush
========================
e e e e e e e e e e e e q e e e e e e e e e e e e e e q e e e
+-----+-------------------+---------------+-----------------+---------------+
|1:---|4:-----R-------R---|---------------|-----R-------R---|---------------|
|8:---|4:-----------------|-5-5-5-2-2---2-|-----------------|-5-5-5-2-2---2-|
+---3-+---3-3---3-3-3---3-+-----------5---+-3-3---3-3-3---3-+-----------5---+
e e e e e e e e e e e q e e e e e e e e e e e e e e q e e e
+-----------------+---------------+-----------------+---------------+
|-----R-------R---|---------------|-----R-------R---|---------------|
|-----------------|-5-5-5-2-2---2-|-----------------|-5-5-5-2-2---2-|
+-3-3---3-3-3---3-+-----------5---+-3-3---3-3-3---3-+-----------5---+
e e e q q e +e q e e e e e e e Q q e +e e e e e e e e e e e q q e
+-------------+----------------+-----------+------------------+-------------+
|-----2-2-2-2-|----2-2-5-5-5-5-|-----2-2-2-|----2-2-2-5-5-5-5-|-----2-2-2-2-|
|-3-5---------|----------------|-3-5-------|------------------|-3-5---------|
+-------------+----------------+-----------+------------------+-------------+
+e e e e e e e e e e e q q e e e e e e e e e e e e q q e
+------------------+-------------+-----------------+-------------+
|----2-2-2---2-----|-------------|-2-2-2-2---------|-------------|
|----------5---3-5-|-----2-5-5-5-|-----------------|-----2-5-5-5-|
+------------------+-3-5---------+---------1-1-1-1-+-3-5---------+
e e e e e e e e e e e q q e e e e e q e e e e e q q e
+-----------------+---------2-2-+-2-2-2-2-------+-------2-2-2-+
|-2-2-2-2---2---2-|-----2-R-----|---------3-3-3-|-----2-------|
|---------5---5---|-3-5---------|---------------|-3-5---------|
+-----------------+-------------+---------------+-------------+
e e e e e e e e e e e q q e e e e e e e e e e e e q q e
+-----------------+-------------+-----------------+-------------+
|-2-2-2-2-5-5-5-5-|-------------|-2-2-2-2---------|-------------|
|-----------------|-----2-5-5-5-|-----------------|-----2-5-5-5-|
+-----------------+-3-5---------+---------1-1-1-1-+-3-5---------+
e q e e e e e Q q q e e e e q e e e e e e q e e e e e e e e e e e
+---------------+---------+---------------+---------------+-----------------+
|---------------|---------|-----R---------|---------------|-----R-----------|
|---5-5-5-5-5-5-|-5-5-5-5-|-5-5---5-5---5-|-3-3-3-3-3-----|-----------------|
+-3-------------+---------+-----------5---+-----------3-1-+-1-1---1-1-0-1-3-+
e q q q e +e q q e e e e q q e e e e e e e e e e e h+Q e +w
+-----------+--------------+-------------+-----------------+-------+----+
|-----------|--------------|-------------|-----------------|-------|----|
|-5-5-5-5-5-|----5-5-5-7-5-|-3-3-3-3-----|-----------------|-------|----|
+-----------+--------------+---------3-1-+-1-1-1-0-1-0-1-1-+-3---1-+----+
h+Q e +e q e e e e e e+h s s e e +w e+h e e e +h q e e e+h e e e
+-------+----------------+-------------+----+-----------+----------+-----------+
|-------|----------------|-------------|----|-----------|----------|-----------|
|-1---3-|----3---3-5-3-5-|-------------|----|-1---3-5-3-|----3-3-3-|-----------|
+-------+------3---------+-3---3-5-3-1-+----+-----------+----------+-3---5-3-1-+
e q e e e e e e+h e e e +w e e e e e e e e e e e e e e e e
+---------------+-----------+----+-----------------+-----------------+
|---------------|-----------|----|-----------------|-----------------|
|---------------|-1-----1-3-|----|-3-3-3-3-3-3-3-3-|-3-3-3-3-3-3-3-3-|
+-1-1-1-0-1-3-5-+-----1-----+----+-----------------+-----------------+
e e e e e e e e e e e e e e e e e e e e e e e e e e e e e e e e
+-----------------+-----------------+-----------------+-----------------+
|-----------------|-----------------|-----------------|-----------------|
|-3-3-3-3-3-3-3-3-|-3-3-3-3-3-3-3-3-|-3-3-3-3-3-3-3-3-|-3-3-3-3-3-3-3-3-|
+-----------------+-----------------+-----------------+-----------------+
e e e e e e e e e e e e e e e e e e e e e e e e h q e e
+-----------------+-----------------+-----------------+---------+
|-----------------|-----------------|-----------------|---------|
|-----------------|-----------------|-----------------|---------|
+-3-3-3-3-3-3-3-3-+-3-3-3-3-3-3-3-3-+-3-3-3-3-3-3-3-3-+-5-1-1-1-+
e e e e q e e e e e e e e e e e e e e e e e e Q e e e e e
+---------------+-----------------+-----------------+-------------+
|---------------|-----------------|-----------------|-------------|
|-3-3-3-3-3-3-3-|-3-3-3-3-3-3-3-3-|-3-3-3-3-3-3-3-3-|-------------|
+---------------+-----------------+-----------------+-5-5-1-1-1-1-+
e e e e e e e e e e e e e e e e e e e e e e e e e e s s e e e s s e
+-----------------+-----------------+-----------------+---------------------+
|-----------------|-----------------|-----------------|---------------------|
|-----------------|-----------------|-----------------|-----------------2-3-|
+-3-3-3-3-3-3-3-3-+-3-3-3-3-3-3-3-3-+-3-3-3-3-3-3-3-3-+-3-3-3-1-3-3-3-5-----+
e e e q q e e q q e e e e q q e e e +e q e e e e e e q q q e
+-------------+-------------+-------------+----------------+-----------+
|-------------|-------------|-------------|----------------|-----------|
|-5-5-5-5-5-5-|-5-5-5-5---5-|-3-3-3-3-----|----------------|-5-5-5-5-5-|
+-------------+---------5---+---------3-1-+----1-1-1-0-1-3-+-----------+
e q q e e e e e e e e e e e +q ^q^q^q^q^q^ h+Q e +w e+h e e e
+-------------+-----------------+---------------+-------+----+-----------+
|-----------2-|-----------------|---------------|-------|----|-----------|
|-5-5-5-7-5---|-3-3-3-3-2-3-----|---------------|-------|----|-1-----1-3-|
+-------------+-------------3-1-+-----1-1-1-1-1-+-3---1-+----+-----1-----+
+e Q e e e e h+Q e h e e e e e+h e e e +h q q h+Q e e Q e e e e
+--------------+-------+-----------+-----------+--------+-------+-------------+
|--------------|-------|-----------|-----------|--------|-------|-------------|
|----3-3-5-3-5-|-------|-----------|-1---3-5-3-|----3-3-|-------|-------------|
+--------------+-3---1-+-1-0-1-3-5-+-----------+--------+-3---1-+-1-1-0-1-3-5-+
h+Q e +h+Q e e e e e e e e e e e e q e e e e e e e e e e e
+-------+--------+-----------------+---------------+-----------------+
|-------|--------|-----------------|---------------|-----------------|
|-1---3-|--------|-----------------|-5-5-5-2-2---2-|-----------------|
+-------+------3-+-3-3-3-3-3-3-3-3-+-----------5---+-3-3-3-3-3-3-3-3-+
e e e q e e e e e e e e e e e e e e q e e e e e e e e e e e
+---------------+-----------------+---------------+-----------------+
|---------------|-----------------|---------------|-----------------|
|-5-5-5-2-2---2-|-----------------|-5-5-5-2-2---2-|-3-3-3-3-3-3-3-3-|
+-----------5---+-3-3-3-3-3-3-3-3-+-----------5---+-----------------+
e e e e s s s s s s s s e q e e q e e q e e e e e e q e e q e
+-----------5-5-5-5-5-5-5-+-------------+---------------+-------------+
|-------------------------|-------------|---------------|-------------|
|-3-3-3-3-3---------------|-3-3-3-3-3-3-|-3-3-3-3-3-3-3-|-3-3-3-3-3-3-|
+-------------------------+-------------+---------------+-------------+
e e e e s s e s s e e q e e q e e q e e e e e e q e e q e
+---------------------+-------------+---------------+-------------+
|---------3-3---2-2---|-------------|---------------|-------------|
|-3-3-3-2-----3-----3-|-------------|---------------|-------------|
+---------------------+-3-3-3-3-3-3-+-3-3-3-3-1-3-1-+-3-3-3-3-3-3-+
e q e e e e e e q e e q e e q e e e e e e q e e q e e e e e e e e e
+---------------+-------------+---------------+-------------+-----------------+
|---------------|-------------|-------------3-|-------------|---------2---2---|
|---------------|-3-3-3-3-3-3-|-3-3-3-3-3-3---|-3-3-3-3-3-3-|-3-3-2-3---3---5-|
+-3-3-3-5-5-3-5-+-------------+---------------+-------------+-----------------+
e q e e q e e q e e e e e e q e e e e e e e e Q q e q e e e e e
+-------------+---------------+---------------+-----------+---------------+
|-------------|-------R-------|-------R---R---|-R---------|---------------|
|-------------|---------------|---------------|-----------|-5-5-5-5-5-5-5-|
+-3-3-3-3-3-3-+-3-3-3---3-3-1-+-3-3-3---3---3-+---3-3-3-3-+---------------+
e q e e e e e e q q e e e +e e e e e e e e e q e e e e e
+---------------+-------------+------------------+---------------+
|---------------|-------------|------------------|---------------|
|-5-5-5-5-5---5-|-3-3-2-3-----|------------------|-5-5-5-5-5-5-5-|
+-----------5---+---------3-1-+----1-1-1-1-1-1-1-+---------------+
e q e e e e e e e e q e e e h^q^q^q^q^ h+Q e +h e e e e e+h e e e
+---------------+---------------+-----------+-------+------------+-----------+
|---------------|---------------|-----------|-------|------------|-----------|
|-5-5-5-5-5---5-|-3-3-3-2-3-----|-----------|-------|------------|-1-----1-3-|
+-----------5---+-----------3-1-+-1-1-1-1-1-+-3---1-+----0-1-3-5-+-----1-----+
+e q e e e e e e+h e e e +h e e e e E E E E E s +e E E e E s e
+----------------+-----------+------------+-------------+----------------+
|----------------|-----------|------------|-------------|----------3-2---|
|----3-3-3-5-3-5-|-----------|------------|-1---1---1-3-|----3-3-3-----3-|
+----------------+-3---5-3-1-+----0-1-3-5-+---1---1-----+----------------+
h+Q e +h e e e e Q e e e e e +e q q e e e H e e +h e e e e
+-------+------------+-------------+--------------+-------+------------+
|-------|------------|-------------|--------------|-------|------------|
|-------|------------|-1---1-3-5-3-|----3-3-3-3-5-|-------|------------|
+-3---1-+----0-1-3-5-+---1---------+--------------+-3-5-1-+----0-1-3-5-+
e e e e s E e e e e e e s E s E e e e e e e e e +e e e e e e e e
+-----------------+-----------------+-----------------+------------------+
|-----------------|-----------------|-----------------|------------------|
|-1-1-1-1-1-1-1-3-|-3-3-3-3-3-3-3-3-|-----------------|------------------|
+-----------------+-----------------+-3-3-3-3-3-3-3-1-+----1-1-1-1-1-3-5-+
e e e e e e e e e e e e e e e e e e e e e e e e e e e e e e e e
+-----------------+-----------------+-----------------+-----------------+
|-----------------|-----------------|-----------------|-----------------|
|-1-1-1-1-1---1-3-|-3-3-3-3-3-5-3-5-|-----------------|-----------------|
+-----------5-----+-----------------+-3-3-3-3-3-5-3-1-+-1-1-1-1-0-1-3-5-+
e e e e e e e e +e q e e e e e e q e e e e e +e e e e e e e e
+-----------------+----------------+---------------+------------------+
|-----------------|----------------|---------------|------------------|
|-1---1---1---1-3-|----3-3-3-5-3-5-|---------------|------------------|
+---1---1---1-----+----------------+-3-3-3-3-5-3-1-+----1-1-1-0-1-3-5-+
e q q e e e e e e e e e e e e e e e e e e e e e e e e e e e
+-------------+-----------------+-----------------+-----------------+
|---------3---|-----2---2---2---|---R-------------|-----------------|
|-1-1-1-1---3-|-3-3---3---3---5-|-----------------|-----------------|
+-------------+-----------------+-3---3-3-3-5-3-1-+-1-1-1-1-0-1-3-5-+
e e e e e e e e +e e e e e e e e e e e e e e e e e e e e e e e e
+-----------------+------------------+-----------------+-----------------+
|-----3---2---2---|------2---2---2---|-----------------|-----------------|
|-1-1---1---5---3-|----3---3---3---5-|-----------------|-----------------|
+-----------------+------------------+-3-3-3-3-3-5-3-1-+-1-1-1-1-0-1-3-5-+
e e e e e e e e e e e e e e e e e q e e e e e e e e e e e e e
+-----------------+-----------------+---------------+-----------------+
|-----3---3---3---|-----3---2---2---|---------------|-----------------|
|-1-1---1---1---3-|-3-3---3---3---3-|---------------|-----------------|
+-----------------+-----------------+-3-3-3-3-5-3-1-+-1-1-1-1-0-1-3-5-+
e e e e e e e e e e e e s s e s s e e e e e e e e e e e e e e e e e
+-----------------+---------------------+-----------------+-----------------+
|-----3---3---3---|-----3---2-2---2-2---|-----------------|-----------------|
|-1-1---1---1---3-|-3-3---3-----3-----3-|-----------------|-----------------|
+-----------------+---------------------+-3-3-3-3-3-5-3-1-+-1-1-1-1-0-1-3-5-+
e e e e e e s s e +e e e e e e e e e e e e e e e e e e e e
+-------------------+------------------+-----------------+-----------+
|-----3---3---3-3---|------3---2---2---|-----------------|2:---------|
|-1-1---1---1-----3-|----3---3---3---3-|-----------------|4:---------|
+-------------------+------------------+-3-3-3-3-3-5-3-1-+---1-1-1-1-+
==========================================================================
Created using the Bass Tab Creator
__ by Mario D'Alessio (motcid!marble!dalessio)
+|oo|+
+|oo|+ Notes: w = Whole h = Half q = Quarter
|| e = 8th s = 16th t = 32nd x = 64th
||
|| Capital durations are dotted notes
|| (equal to 1.5 times the duration value)
||
|| #
|| +----+ +----+
_ || _ |*--*+ = MEASURE |4:--| = TIME
_||_// |*--*+ REPEATS |4:--| SIGNATURES
| [] | +----+ (#=Num Repeats) +----+
| || |
/ [] + = TIE ^ = TRIPLET > = BEND
______/ H = HAMMER ON = SLIDE TO FRET R = Rest
P = PULL OFF X = SLIDE TO NOWHERE ~ = Trill




Ваше мнение



Капча