Turn The Page By: Rush
========================
e e e e e e e e e e e e e e e e e e e e e e e e
+---16-------14----16----16----14-16----+-16-------14----16----16----14-16----+
|6:-16-------14----16----16----14-16----|-16-------14----16----16----14-16----|
|4:----14-14----14----14----14-------14-|----14-14----14----14----14-------14-|
+---------------------------------------+-------------------------------------+
e e e e e e e e e e e e e e e e e e e e e e e e
+-16-------14----16----16----14-16----+-16-------14----16----16----14-16----+
|-16-------14----16----16----14-16----|-16-------14----16----16----14-16----|
|----14-14----14----14----14-------14-|----14-14----14----14----14-------14-|
+-------------------------------------+-------------------------------------+
e e e e e e e e e e e e e e e e e e e e e e e e
+-13-------11----13----13----11-13----+-13-------11----13----13----11-13----+
|-13-------11----13----13----11-13----|-13-------11----13----13----11-13----|
|----11-11----11----11----11-------11-|----11-11----11----11----11-------11-|
+-------------------------------------+-------------------------------------+
e e e e e e e e e e e e e e e e e e e e e e e e
+-13-------11----13----13----11-13----+-13-------11----13----13----11-13----+
|-13-------11----13----13----11-13----|-13-------11----13----13----11-13----|
|----11-11----11----11----11-------11-|----11-11----11----11----11-------11-|
+-------------------------------------+-------------------------------------+
e e e e e e e e e e e e e e e e e e e e e e e e e e e e e e e e e e e e
+---4---2---4---4---2-4---+---4---2---4---4---2-4---+---4---2---4---4---2-4---+
|-----4---4-------4-----4-|-----4---4-------4-----4-|-----4---4-------4-----4-|
|-2-----------2-----------|-2-----------2-----------|-2-----------2-----------|
+-------------------------+-------------------------+-------------------------+
e e e e e e e e e e e e e e e e e e e e e e e e e e e e e e e e e e e e
+---4---2---4-----4---4---+-------------------------+-------------------------+
|-----4---4---------------|---6---4---6---6---4-6---|---6---4---6---6---4-6---|
|-2-----------2-2---2---2-|-----6---6-------6-----6-|-----6---6-------6-----6-|
+-------------------------+-4-----------4-----------+-4-----------4-----------+
e e e e e e e e e e e e e e e e e e e e e e e e e e e q q e e e e e
+-------------------------+-------------------------+-----------1-0-------+
|---6---4---6---6---4-6---|---6---4---6-----6---6---|---3---1-3-----3-1---|
|-----6---6-------6-----6-|-----6---6---------------|-----3-------------3-|
+-4-----------4-----------+-4-----------4-4---4---4-+-1-------------------+
e e e e e e e e e e e e e e e q q e e e e e e e e e e e e e e e e e
+-------------------------+-----------1-0-------+-------------------------+
|---3---1---3---------0---|---3---1-3-----3-1---|---3---1---3-----3-----3-|
|-----3---3---0-1-2-3---3-|-----3-------------3-|-----3---3---0-0---0-0---|
+-1-----------------------+-1-------------------+-1-----------------------+
e e e e e e e e e e e e e e e e e e e e e e e e e e e e e e e e e e e e
+---7---5---7-----7---5-7-+---7---5---7---5---------+---7---5---7---7---5-7---+
|-----R---7---------7-----|-----7---7---7---7-6-5-3-|-----R---R-------R-----7-|
|-5-----------5-5---------|-5-----------------------|-5-----------5-----------|
+-------------------------+-------------------------+-------------------------+
e e e e e e e e e e e e w w +w +w +w +w +w +w +w +w
+---7---5-----------------+-----+---+----+----+----+----+----+----+----+----+
|-----R---R---------------|4:---|-R-|----|----|----|----|----|----|----|----|
|-5---------5-5-5-5-5-5-5-|4:-4-|---|----|----|----|----|----|----|----|----|
+-------------------------+-----+---+----+----+----+----+----+----+----+----+
+w +w h+Q e e e+h e e w e Q Q e q e+h e h+Q e q H
+----+----+-------+-----------+---+---------+---------+-------+-----+
|----|----|-------|-----------|---|---------|---------|-------|-----|
|----|----|-4-----|-----------|---|---------|-4-4-----|-----4-|-5-5-|
+----+----+-----4-+-2-2---4-2-+-0-+-5-5-7-7-+-------2-+-2-----+-----+
e Q e^e^e^e^e^e^ Q q q e e q q q e Q q e e e e e e e q e e
+-----------------+---------+-----------+-----------+---------------+
|-----------------|---------|-----------|-----------|---2-4-2-------|
|-5-5-7-7-7-7-7-7-|-4-4-4-4-|-----------|-----------|-0-------2-0-2-|
+-----------------+---------+-2-2-2-2-2-+-0-0-0-0-0-+---------------+
Q q e e e e q q e e e e+h e e e e e e e e e e e Q q e e q e e e
+-----------+-------------+-----------+-----------------+---4-2-4---4-2-4---+
|-----------|-------------|-----------|-----------------|6:-----------------|
|-4-4-4-----|---------4-3-|-5---5-5-5-|-5-5-5-5-5-5-5-5-|4:-------2-------2-|
+-------4-2-+-2-2-2-2-----+-----------+-----------------+-------------------+
Q q e e q e e e Q q e e q e e e Q q e e q e e e Q q e e e e e e e
+-4-2-4---4-2-4---+-4-2-4---4-2-4---+-4-2-4---4-2-4---+-4-2-4-2-1-2-1-----+
|-------R---------|-------R---------|-------R---------|---------------4-2-|
|---------------2-|---------------2-|---------------2-|-------------------|
+-----------------+-----------------+-----------------+-------------------+
e e e q e e q e e e e e e q e e e e e e e e e e q e e q e e e
+---------------------+-----------------------+---------------------+
|---6-R-4-6---6-4-6---|---6-R-4-6-R-6-R-4-6---|---6-R-4-6---6-4-6---|
|-------------------6-|---------------------6-|-------------------6-|
+-4---------4---------+-4---------------------+-4---------4---------+
e e e q e e e e e e e e e e q e e e e e e e e e e q e e e e e e e
+-----------------------+-----------------------+-----------------------+
|---6-R-4-6-4-3-4-3-----|---3-R-1-3---3-R-1-3---|---3-R-1-3---3-R-1-3---|
|-------------------6-4-|---------------------3-|---------------------3-|
+-4---------------------+-1---------1-----------+-1---------1-----------+
e q q e e e e e e e e e e q e e e e e e e e e e q e e e e e e e
+---------------------+-----------1-----------+---7---5-7---7---5-7---+
|---R-1-3---3-R-1-3---|---3-R-1-3---5-3-1-----|-----R---------7-----7-|
|-------------------3-|-------------------3-1-|-5---------5-----------|
+-1-------1-----------+-1---------------------+-----------------------+
e e e q e e e e e e e e e e q e e e e e e e e e e e e e e e e e e e
+---7---5-7-----7---5-7-+---7---5-7---7---5-7---+---7---5---7-9-7-5-4-----+
|-----7-----------7-----|-----7---------7-----7-|-----7---7-----------7-5-|
|-5---------5-5---------|-5---------5-----------|-5-----------------------|
+-----------------------+-----------------------+-------------------------+
h+Q e H e e w q e e q e e h+Q e H e e h h h h Q q q e
+---------+-------+---+-----2-------+-------+-------+-----+-----+---------+
|4:-------|-------|---|---2---------|-------|-------|-----|-----|---------|
|4:-4-----|-------|---|-0-----2-0-2-|-4-----|-------|-5-7-|-4-5-|-4-4-4-4-|
+-------4-+-2-4-2-+-0-+-------------+-----4-+-2-2-2-+-----+-----+---------+
e e e e e e e e Q q e e e e e e e e e e e Q q e e e e e e q e e e
+-----------------+-----------+-------2---------+-----------+---------------+
|-----R---R-------|-----------|-----2-----------|-------R---|-----R---------|
|-----------------|-------4-2-|-0-0-----2-2-0-2-|-4-4-4---4-|---------------|
+-2-2---2---2-4-2-+-0-0-0-----+-----------------+-----------+-2-2---2-2-0-2-+
Q Q q +q q h e q e+h +w Q Q q +H e e
+-------+--------+---------+----+-------+--------+
|-------|------R-|---R-----|----|-------|------R-|
|-5-5-5-|----5---|---------|----|-------|--------|
+-------+--------+-7---5---+----+-7-5-3-+----3---+
q e e e e e e e e e e e e e e e e e e e e e e
+---16----14----16----16----14-16----+-16-------14----16----16----14-16----+
|6:-16----14----16----16----14-16----|-16-------14----16----16----14-16----|
|4:----14----14----14----14-------14-|----14-14----14----14----14-------14-|
+------------------------------------+-------------------------------------+
e e e e e e e e e e e e e e e e e e e e e e e e
+-16-------14----16----16----14-16----+-16-------14----16----16----14-16----+
|-16-------14----16----16----14-16----|-16-------14----16----16----14-16----|
|----14-14----14----14----14-------14-|----14-14----14----14----14-------14-|
+-------------------------------------+-------------------------------------+
e e e e e e e e e e e e e e e e e e e e e e e e
+-16-------14----16----16----14-16----+-16-------14----16----16----14-16----+
|-16-------14----16----16----14-16----|-16-------14----16----16----14-16----|
|----14-14----14----14----14-------14-|----14-14----14----14----14-------14-|
+-------------------------------------+-------------------------------------+
e e e e e e e e e e e e q q e e e q e e e
+-16-------14----16----16----14-16----+---16-16-+-----------------+
|-16-------14----16----16----14-16----|2:-16-16-|4:---------------|
|----14-14----14----14----14-------14-|4:-------|4:-2---2-0-0-----|
+-------------------------------------+---------+-----2-------2-0-+
Q e e e e e e e e q e e e h e e e e e e e q e e e e e e e e e e e
+-------------+---------------+-----------+---------------+-----------------+
|-------------|---------------|-----------|---------------|-----------------|
|-----5---5-4-|-2---2-0-0-----|---5---5-4-|-2---2-0-0-----|---------5---5-4-|
+-0-0---5-----+---2-------2-0-+-0---5-----+---2-------2-0-+-0-0-0-0---5-----+
e e e q e e e e e e e e e e e +e e e q e e e h e e e e e e e q e e e
+---------------+-----------------+----------------+-----------+---------------+
|---------------|-----------------|----------------|-----------|---------------|
|-2---2-0-0-----|---------5---4-2-|------2-0-0-----|---5---5-4-|-2---2-0-0-----|
+---2-------2-0-+-0-0-0-0---5-----+----2-------2-0-+-0---5-----+---2-------2-0-+
e q e e e e e q e e e e e e e e e e
+---------------+---16----14----16----16----14-16----+
|---------------|6:-16----14----16----16----14-16----|
|-------5---5-4-|4:----14----14----14----14-------14-|
+-0-0-0---5-----+------------------------------------+
q e e e e e e e e e e q e e e e e e e e e e
+-16----14----16----16----14-16----+-16----14----16----16----14-16----+
|-16----14----16----16----14-16----|-16----14----16----16----14-16----|
|----14----14----14----14-------14-|----14----14----14----14-------14-|
+----------------------------------+----------------------------------+
e q e+h +w Q Q q +w Q e+h +w Q Q q +w w +w +w +w
+-----------+----+-------+----+-------+----+-------+----+---+----+----+----+
|4:---R-----|----|-------|----|-------|----|-------|----|-R-|----|----|----|
|4:---------|----|-------|----|-------|----|-------|----|---|----|----|----|
+---7---5---+----+-7-5-3-+----+-7-5---+----+-7-5-3-+----+---+----+----+----+
+w +w e e e e e e e e e e e e e e e e Q q q e e e e e e e e e
+----+----+-----------------+-----------------+---------+-----------------+
|----|----|-----------------|-----------------|---------|-----R---R-------|
|----|----|-----------------|-----------------|-4-4-4-4-|-----------------|
+----+----+-5-5-5-5-5-5-5-5-+-5-5-5-5-5-5-5-5-+---------+-2-2---2---2-4-2-+
Q q e e e q e e q e e e q q e e e e e e q q e e q e e e e e
+-----------+-----2-------+-------------+-------------+---------------+
|-----------|---2---------|-------------|-----R-------|---------------|
|-------4-2-|-0-----2-0-2-|-4-4-4-4---4-|-------------|-5-5-5-5-5-5-5-|
+-0-0-0-----+-------------+---------4---+-2-2---2-2-2-+---------------+
e e e e e e q Q q e e e Q q e e e Q q e e e q e e q e e
+---------------+-----------+-----------+-----------+-----2-------+
|---------------|-------R---|-----------|-----------|---2---------|
|-5-5-4-4-7-7-5-|-4-4-4---4-|-----------|-------4-2-|-0-----2-0-2-|
+---------------+-----------+-2-2-2-4-2-+-0-0-0-----+-------------+
e q e e q e e e e e e e e e Q e e e e e e e e e E E e Q q e e e
+-------------+-----------------+-------------+---------------+-----------+
|-------R-----|-----R---R---R---|---------R---|---------------|-------R---|
|-4-4-4---4-4-|-----------------|-5-5-5-5---5-|-5-5-4-4-7-7-7-|-4-4-4---4-|
+-------------+-2-2---2---2---2-+-------------+---------------+-----------+
Q q e e e Q e e e e e e e e e e e e e Q q e e e Q q e e e
+-----------+-------------+-------2---------+-----------+-----------+
|-----------|-------------|-----2-----------|-------R---|-----------|
|-----------|---------4-2-|-0-0-----2-2-0-2-|-4-4-4---4-|-----------|
+-2-2-2-4-2-+-0-0-0-0-----+-----------------+-----------+-2-2-2-0-2-+
Q e e e e e e e e e E E e q e e e e e e e e e e e e e e
+-------------+---------------+---6---6---6---+-----------------+
|---------R---|-----R---------|---------------|-----------------|
|-5-5-5-5---5-|-5-5---5-5-5-5-|-4---4---4---4-|-----------------|
+-------------+---------------+---------------+-2-2-2-2-2-2-4-2-+
e e e e e e e e e e e e e e e e e e e e e e e e e e e e e e e e
+-----------------+-------2---------+-----6---6---6---+-----------------+
|-----------------|-----2-----------|-----------------|-----4-----------|
|-------------4-2-|-0-0-----2-2---2-|-4-4---4---4---4-|-----------------|
+-0-0-0-0-0-0-----+-------------2---+-----------------+-2-2---2-2-2-0-2-+
e e e e e e e e e e e e e e e e e e H
+-----------------+-----------------+-------+
|-----------------|-----------------|---R-R-|
|-5-5-5-5-7-7-7-7-|-4-4-4-4-5-5-5-5-|-4-----|
+-----------------+-----------------+-------+
==========================================================================
Created using the Bass Tab Creator
__ by Mario D'Alessio (motcid!marble!dalessio)
+|oo|+
+|oo|+ Notes: w = Whole h = Half q = Quarter
|| e = 8th s = 16th t = 32nd x = 64th
||
|| Capital durations are dotted notes
|| (equal to 1.5 times the duration value)
||
|| #
|| +----+ +----+
_ || _ |*--*+ = MEASURE |4:--| = TIME
_||_// |*--*+ REPEATS |4:--| SIGNATURES
| [] | +----+ (#=Num Repeats) +----+
| || |
/ [] + = TIE ^ = TRIPLET > = BEND
______/ H = HAMMER ON = SLIDE TO FRET R = Rest
P = PULL OFF X = SLIDE TO NOWHERE ~ = Trill




Ваше мнение



Капча